999
"DXF R12 Output" (www.mydxf.blogspot.com)
 0 
SECTION
 2 
HEADER
 9 
$ACADVER
 1 
AC1009
 9 
$EXTMIN
 10 
 0 
 20 
 0 
 9 
$EXTMAX
 10 
 8.5 
 20 
 11 
 0 
ENDSEC
 0 
SECTION
 2 
ENTITIES
0
LINE
8
Layer 1
10
97.971054
20
115.282557
11
93.967428
21
115.741582
0
LINE
8
Layer 1
10
93.967428
20
115.741582
11
90.566015
21
116.386695
0
LINE
8
Layer 1
10
90.566015
20
116.386695
11
87.938324
21
117.177062
0
LINE
8
Layer 1
10
87.938324
20
117.177062
11
86.255863
21
118.071846
0
LINE
8
Layer 1
10
86.255863
20
118.071846
11
85.941795
21
118.410197
0
LINE
8
Layer 1
10
85.941795
20
118.410197
11
85.725388
21
118.888145
0
LINE
8
Layer 1
10
85.725388
20
118.888145
11
85.462068
21
120.666454
0
LINE
8
Layer 1
10
85.462068
20
120.666454
11
85.163042
21
122.559091
0
LINE
8
Layer 1
10
85.163042
20
122.559091
11
84.516434
21
123.884351
0
LINE
8
Layer 1
10
84.516434
20
123.884351
11
83.940176
21
124.945690
0
LINE
8
Layer 1
10
83.940176
20
124.945690
11
83.752509
21
125.862979
0
LINE
8
Layer 1
10
83.752509
20
125.862979
11
83.953230
21
126.610391
0
LINE
8
Layer 1
10
83.953230
20
126.610391
11
84.542136
21
127.162103
0
LINE
8
Layer 1
10
84.542136
20
127.162103
11
85.260613
21
127.776989
0
LINE
8
Layer 1
10
85.260613
20
127.776989
11
85.810668
21
128.675622
0
LINE
8
Layer 1
10
85.810668
20
128.675622
11
86.162532
21
129.791510
0
LINE
8
Layer 1
10
86.162532
20
129.791510
11
86.286436
21
131.058158
0
LINE
8
Layer 1
10
86.286436
20
131.058158
11
86.392650
21
132.287011
0
LINE
8
Layer 1
10
86.392650
20
132.287011
11
86.610469
21
132.463331
0
LINE
8
Layer 1
10
86.610469
20
132.463331
11
87.013700
21
132.497172
0
LINE
8
Layer 1
10
87.013700
20
132.497172
11
87.628840
21
132.622548
0
LINE
8
Layer 1
10
87.628840
20
132.622548
11
88.210556
21
132.969991
0
LINE
8
Layer 1
10
88.210556
20
132.969991
11
88.735102
21
133.496477
0
LINE
8
Layer 1
10
88.735102
20
133.496477
11
89.178731
21
134.158979
0
LINE
8
Layer 1
10
89.178731
20
134.158979
11
89.728259
21
135.719934
0
LINE
8
Layer 1
10
89.728259
20
135.719934
11
89.786666
21
136.532335
0
LINE
8
Layer 1
10
89.786666
20
136.532335
11
89.669174
21
137.308652
0
LINE
8
Layer 1
10
89.669174
20
137.308652
11
89.390880
21
138.328995
0
LINE
8
Layer 1
10
89.390880
20
138.328995
11
90.308103
21
138.572996
0
LINE
8
Layer 1
10
90.308103
20
138.572996
11
91.509125
21
139.066375
0
LINE
8
Layer 1
10
91.509125
20
139.066375
11
92.245799
21
139.892932
0
LINE
8
Layer 1
10
92.245799
20
139.892932
11
92.477745
21
140.973178
0
LINE
8
Layer 1
10
92.477745
20
140.973178
11
92.164583
21
142.227622
0
LINE
8
Layer 1
10
92.164583
20
142.227622
11
92.015317
21
142.646979
0
LINE
8
Layer 1
10
92.015317
20
142.646979
11
92.043319
21
142.999044
0
LINE
8
Layer 1
10
92.043319
20
142.999044
11
92.799583
21
143.961177
0
LINE
8
Layer 1
10
92.799583
20
143.961177
11
94.006584
21
145.073395
0
LINE
8
Layer 1
10
94.006584
20
145.073395
11
95.416061
21
146.063243
0
LINE
8
Layer 1
10
95.416061
20
146.063243
11
97.165472
21
147.015220
0
LINE
8
Layer 1
10
97.165472
20
147.015220
11
99.392277
21
148.013824
0
LINE
8
Layer 1
10
99.392277
20
148.013824
11
103.613071
21
150.000866
0
LINE
8
Layer 1
10
103.613071
20
150.000866
11
106.773249
21
152.008898
0
LINE
8
Layer 1
10
106.773249
20
152.008898
11
107.982658
21
153.041548
0
LINE
8
Layer 1
10
107.982658
20
153.041548
11
108.959374
21
154.104361
0
LINE
8
Layer 1
10
108.959374
20
154.104361
11
109.714218
21
155.205642
0
LINE
8
Layer 1
10
109.714218
20
155.205642
11
110.258011
21
156.353696
0
LINE
8
Layer 1
10
110.258011
20
156.353696
11
110.606021
21
157.400691
0
LINE
8
Layer 1
10
110.606021
20
157.400691
11
110.771539
21
158.488163
0
LINE
8
Layer 1
10
110.771539
20
158.488163
11
110.692652
21
162.836061
0
LINE
8
Layer 1
10
110.692652
20
162.836061
11
110.457725
21
166.399344
0
LINE
8
Layer 1
10
110.457725
20
166.399344
11
110.172675
21
168.226111
0
LINE
8
Layer 1
10
110.172675
20
168.226111
11
109.416024
21
169.114316
0
LINE
8
Layer 1
10
109.416024
20
169.114316
11
108.047163
21
170.418091
0
LINE
8
Layer 1
10
108.047163
20
170.418091
11
106.461755
21
171.929496
0
LINE
8
Layer 1
10
106.461755
20
171.929496
11
105.082197
21
173.470600
0
LINE
8
Layer 1
10
105.082197
20
173.470600
11
103.908800
21
175.040820
0
LINE
8
Layer 1
10
103.908800
20
175.040820
11
102.941876
21
176.639577
0
LINE
8
Layer 1
10
102.941876
20
176.639577
11
102.181734
21
178.266289
0
LINE
8
Layer 1
10
102.181734
20
178.266289
11
101.628687
21
179.920377
0
LINE
8
Layer 1
10
101.628687
20
179.920377
11
101.283046
21
181.601259
0
LINE
8
Layer 1
10
101.283046
20
181.601259
11
101.145120
21
183.308354
0
LINE
8
Layer 1
10
101.145120
20
183.308354
11
101.212439
21
185.119471
0
LINE
8
Layer 1
10
101.212439
20
185.119471
11
101.590234
21
186.233903
0
LINE
8
Layer 1
10
101.590234
20
186.233903
11
101.936834
21
186.589184
0
LINE
8
Layer 1
10
101.936834
20
186.589184
11
102.410583
21
186.841479
0
LINE
8
Layer 1
10
102.410583
20
186.841479
11
103.805567
21
187.132028
0
LINE
8
Layer 1
10
103.805567
20
187.132028
11
105.470651
21
187.503825
0
LINE
8
Layer 1
10
105.470651
20
187.503825
11
106.954371
21
188.455709
0
LINE
8
Layer 1
10
106.954371
20
188.455709
11
107.934710
21
189.131420
0
LINE
8
Layer 1
10
107.934710
20
189.131420
11
108.867780
21
189.562815
0
LINE
8
Layer 1
10
108.867780
20
189.562815
11
109.766271
21
189.747101
0
LINE
8
Layer 1
10
109.766271
20
189.747101
11
110.642869
21
189.681485
0
LINE
8
Layer 1
10
110.642869
20
189.681485
11
111.510263
21
189.363173
0
LINE
8
Layer 1
10
111.510263
20
189.363173
11
112.381140
21
188.789374
0
LINE
8
Layer 1
10
112.381140
20
188.789374
11
113.268187
21
187.957292
0
LINE
8
Layer 1
10
113.268187
20
187.957292
11
114.184094
21
186.864137
0
LINE
8
Layer 1
10
114.184094
20
186.864137
11
115.366049
21
185.169821
0
LINE
8
Layer 1
10
115.366049
20
185.169821
11
116.342613
21
183.414358
0
LINE
8
Layer 1
10
116.342613
20
183.414358
11
117.194046
21
181.433711
0
LINE
8
Layer 1
10
117.194046
20
181.433711
11
118.000608
21
179.063839
0
LINE
8
Layer 1
10
118.000608
20
179.063839
11
118.837327
21
176.591908
0
LINE
8
Layer 1
10
118.837327
20
176.591908
11
119.438002
21
175.206344
0
LINE
8
Layer 1
10
119.438002
20
175.206344
11
120.285299
21
174.590758
0
LINE
8
Layer 1
10
120.285299
20
174.590758
11
121.775734
21
173.969522
0
LINE
8
Layer 1
10
121.775734
20
173.969522
11
124.566377
21
172.900951
0
LINE
8
Layer 1
10
124.566377
20
172.900951
11
127.029303
21
171.616349
0
LINE
8
Layer 1
10
127.029303
20
171.616349
11
129.256421
21
170.060044
0
LINE
8
Layer 1
10
129.256421
20
170.060044
11
131.339638
21
168.176363
0
LINE
8
Layer 1
10
131.339638
20
168.176363
11
132.572327
21
166.785810
0
LINE
8
Layer 1
10
132.572327
20
166.785810
11
133.312739
21
165.539379
0
LINE
8
Layer 1
10
133.312739
20
165.539379
11
133.634786
21
164.261462
0
LINE
8
Layer 1
10
133.634786
20
164.261462
11
133.612379
21
162.776448
0
LINE
8
Layer 1
10
133.612379
20
162.776448
11
133.297758
21
161.453515
0
LINE
8
Layer 1
10
133.297758
20
161.453515
11
132.565513
21
160.172618
0
LINE
8
Layer 1
10
132.565513
20
160.172618
11
131.301124
21
158.780442
0
LINE
8
Layer 1
10
131.301124
20
158.780442
11
129.390075
21
157.123669
0
LINE
8
Layer 1
10
129.390075
20
157.123669
11
127.974743
21
155.857259
0
LINE
8
Layer 1
10
127.974743
20
155.857259
11
127.561324
21
155.313605
0
LINE
8
Layer 1
10
127.561324
20
155.313605
11
127.326758
21
154.763687
0
LINE
8
Layer 1
10
127.326758
20
154.763687
11
127.258062
21
154.158030
0
LINE
8
Layer 1
10
127.258062
20
154.158030
11
127.342251
21
153.447162
0
LINE
8
Layer 1
10
127.342251
20
153.447162
11
127.917352
21
151.511892
0
LINE
8
Layer 1
10
127.917352
20
151.511892
11
128.543428
21
149.477310
0
LINE
8
Layer 1
10
128.543428
20
149.477310
11
128.907727
21
147.734014
0
LINE
8
Layer 1
10
128.907727
20
147.734014
11
129.020054
21
146.214892
0
LINE
8
Layer 1
10
129.020054
20
146.214892
11
128.890212
21
144.852836
0
LINE
8
Layer 1
10
128.890212
20
144.852836
11
128.165763
21
142.631579
0
LINE
8
Layer 1
10
128.165763
20
142.631579
11
126.805018
21
139.300201
0
LINE
8
Layer 1
10
126.805018
20
139.300201
11
125.442508
21
136.036354
0
LINE
8
Layer 1
10
125.442508
20
136.036354
11
124.590077
21
133.501176
0
LINE
8
Layer 1
10
124.590077
20
133.501176
11
124.142795
21
131.313368
0
LINE
8
Layer 1
10
124.142795
20
131.313368
11
123.995733
21
129.091634
0
LINE
8
Layer 1
10
123.995733
20
129.091634
11
123.963103
21
126.673875
0
LINE
8
Layer 1
10
123.963103
20
126.673875
11
125.444769
21
124.961091
0
LINE
8
Layer 1
10
125.444769
20
124.961091
11
126.926436
21
122.964671
0
LINE
8
Layer 1
10
126.926436
20
122.964671
11
127.484683
21
121.450769
0
LINE
8
Layer 1
10
127.484683
20
121.450769
11
127.915394
21
120.283516
0
LINE
8
Layer 1
10
127.915394
20
120.283516
11
128.081532
21
119.251880
0
LINE
8
Layer 1
10
128.081532
20
119.251880
11
127.978367
21
118.349251
0
LINE
8
Layer 1
10
127.978367
20
118.349251
11
127.601174
21
117.569019
0
LINE
8
Layer 1
10
127.601174
20
117.569019
11
126.945222
21
116.904571
0
LINE
8
Layer 1
10
126.945222
20
116.904571
11
126.005786
21
116.349298
0
LINE
8
Layer 1
10
126.005786
20
116.349298
11
124.778137
21
115.896588
0
LINE
8
Layer 1
10
124.778137
20
115.896588
11
123.257547
21
115.539830
0
LINE
8
Layer 1
10
123.257547
20
115.539830
11
118.997099
21
115.299675
0
LINE
8
Layer 1
10
118.997099
20
115.299675
11
111.278451
21
115.155540
0
LINE
8
Layer 1
10
111.278451
20
115.155540
11
103.227728
21
115.139232
0
LINE
8
Layer 1
10
103.227728
20
115.139232
11
97.971054
21
115.282557
0
LINE
8
Layer 1
10
97.971054
20
115.282557
11
97.971054
21
115.282557
0
LINE
8
Layer 1
10
123.808786
20
116.155081
11
125.364474
21
116.551791
0
LINE
8
Layer 1
10
125.364474
20
116.551791
11
126.445220
21
117.019788
0
LINE
8
Layer 1
10
126.445220
20
117.019788
11
127.134970
21
117.609208
0
LINE
8
Layer 1
10
127.134970
20
117.609208
11
127.517666
21
118.370186
0
LINE
8
Layer 1
10
127.517666
20
118.370186
11
127.674887
21
119.328619
0
LINE
8
Layer 1
10
127.674887
20
119.328619
11
127.506933
21
120.183258
0
LINE
8
Layer 1
10
127.506933
20
120.183258
11
127.197302
21
120.992680
0
LINE
8
Layer 1
10
127.197302
20
120.992680
11
126.565702
21
120.042147
0
LINE
8
Layer 1
10
126.565702
20
120.042147
11
125.747241
21
119.177860
0
LINE
8
Layer 1
10
125.747241
20
119.177860
11
124.666381
21
118.434680
0
LINE
8
Layer 1
10
124.666381
20
118.434680
11
123.271256
21
117.921042
0
LINE
8
Layer 1
10
123.271256
20
117.921042
11
121.423103
21
117.916960
0
LINE
8
Layer 1
10
121.423103
20
117.916960
11
119.726494
21
118.196231
0
LINE
8
Layer 1
10
119.726494
20
118.196231
11
118.229706
21
118.739427
0
LINE
8
Layer 1
10
118.229706
20
118.739427
11
117.083220
21
119.473813
0
LINE
8
Layer 1
10
117.083220
20
119.473813
11
116.437517
21
120.326658
0
LINE
8
Layer 1
10
116.437517
20
120.326658
11
116.275841
21
121.679054
0
LINE
8
Layer 1
10
116.275841
20
121.679054
11
116.320223
21
124.030506
0
LINE
8
Layer 1
10
116.320223
20
124.030506
11
116.490809
21
126.993839
0
LINE
8
Layer 1
10
116.490809
20
126.993839
11
115.368493
21
128.666102
0
LINE
8
Layer 1
10
115.368493
20
128.666102
11
114.399615
21
130.563571
0
LINE
8
Layer 1
10
114.399615
20
130.563571
11
113.971599
21
132.524896
0
LINE
8
Layer 1
10
113.971599
20
132.524896
11
114.089541
21
134.485624
0
LINE
8
Layer 1
10
114.089541
20
134.485624
11
114.758538
21
136.381301
0
LINE
8
Layer 1
10
114.758538
20
136.381301
11
115.300461
21
137.436061
0
LINE
8
Layer 1
10
115.300461
20
137.436061
11
115.164083
21
134.472728
0
LINE
8
Layer 1
10
115.164083
20
134.472728
11
115.027704
21
131.509395
0
LINE
8
Layer 1
10
115.027704
20
131.509395
11
116.345386
21
129.251617
0
LINE
8
Layer 1
10
116.345386
20
129.251617
11
117.173194
21
127.782553
0
LINE
8
Layer 1
10
117.173194
20
127.782553
11
117.562126
21
126.714885
0
LINE
8
Layer 1
10
117.562126
20
126.714885
11
117.622103
21
125.486347
0
LINE
8
Layer 1
10
117.622103
20
125.486347
11
117.463048
21
123.534672
0
LINE
8
Layer 1
10
117.463048
20
123.534672
11
117.371862
21
121.493560
0
LINE
8
Layer 1
10
117.371862
20
121.493560
11
117.504296
21
120.999921
0
LINE
8
Layer 1
10
117.504296
20
120.999921
11
117.782123
21
120.613001
0
LINE
8
Layer 1
10
117.782123
20
120.613001
11
118.416378
21
120.041715
0
LINE
8
Layer 1
10
118.416378
20
120.041715
11
119.175088
21
119.603842
0
LINE
8
Layer 1
10
119.175088
20
119.603842
11
120.085399
21
119.287110
0
LINE
8
Layer 1
10
120.085399
20
119.287110
11
121.174459
21
119.079244
0
LINE
8
Layer 1
10
121.174459
20
119.079244
11
122.500402
21
119.028438
0
LINE
8
Layer 1
10
122.500402
20
119.028438
11
123.736324
21
119.237852
0
LINE
8
Layer 1
10
123.736324
20
119.237852
11
124.875422
21
119.705547
0
LINE
8
Layer 1
10
124.875422
20
119.705547
11
125.910890
21
120.429582
0
LINE
8
Layer 1
10
125.910890
20
120.429582
11
126.970937
21
121.349395
0
LINE
8
Layer 1
10
126.970937
20
121.349395
11
126.413872
21
122.644222
0
LINE
8
Layer 1
10
126.413872
20
122.644222
11
125.716690
21
123.845270
0
LINE
8
Layer 1
10
125.716690
20
123.845270
11
124.822743
21
124.914629
0
LINE
8
Layer 1
10
124.822743
20
124.914629
11
124.008401
21
125.888823
0
LINE
8
Layer 1
10
124.008401
20
125.888823
11
123.548954
21
127.020887
0
LINE
8
Layer 1
10
123.548954
20
127.020887
11
123.408196
21
128.466291
0
LINE
8
Layer 1
10
123.408196
20
128.466291
11
123.549926
21
130.380506
0
LINE
8
Layer 1
10
123.549926
20
130.380506
11
123.965792
21
132.869887
0
LINE
8
Layer 1
10
123.965792
20
132.869887
11
124.602021
21
135.268348
0
LINE
8
Layer 1
10
124.602021
20
135.268348
11
125.489957
21
137.674693
0
LINE
8
Layer 1
10
125.489957
20
137.674693
11
126.660944
21
140.187728
0
LINE
8
Layer 1
10
126.660944
20
140.187728
11
127.769758
21
142.898801
0
LINE
8
Layer 1
10
127.769758
20
142.898801
11
128.262827
21
144.485636
0
LINE
8
Layer 1
10
128.262827
20
144.485636
11
128.592301
21
146.150364
0
LINE
8
Layer 1
10
128.592301
20
146.150364
11
128.488744
21
147.704524
0
LINE
8
Layer 1
10
128.488744
20
147.704524
11
128.157567
21
149.231485
0
LINE
8
Layer 1
10
128.157567
20
149.231485
11
127.181184
21
152.207285
0
LINE
8
Layer 1
10
127.181184
20
152.207285
11
126.644214
21
154.267411
0
LINE
8
Layer 1
10
126.644214
20
154.267411
11
126.794361
21
155.051123
0
LINE
8
Layer 1
10
126.794361
20
155.051123
11
127.232492
21
155.839635
0
LINE
8
Layer 1
10
127.232492
20
155.839635
11
127.940142
21
156.607860
0
LINE
8
Layer 1
10
127.940142
20
156.607860
11
128.898848
21
157.330710
0
LINE
8
Layer 1
10
128.898848
20
157.330710
11
130.118301
21
158.277935
0
LINE
8
Layer 1
10
130.118301
20
158.277935
11
131.410732
21
159.511846
0
LINE
8
Layer 1
10
131.410732
20
159.511846
11
132.435784
21
160.679708
0
LINE
8
Layer 1
10
132.435784
20
160.679708
11
132.853103
21
161.428786
0
LINE
8
Layer 1
10
132.853103
20
161.428786
11
132.604394
21
161.731536
0
LINE
8
Layer 1
10
132.604394
20
161.731536
11
132.006436
21
162.044118
0
LINE
8
Layer 1
10
132.006436
20
162.044118
11
131.447181
21
162.354451
0
LINE
8
Layer 1
10
131.447181
20
162.354451
11
131.171556
21
162.680806
0
LINE
8
Layer 1
10
131.171556
20
162.680806
11
131.232875
21
162.889956
0
LINE
8
Layer 1
10
131.232875
20
162.889956
11
131.684454
21
162.848679
0
LINE
8
Layer 1
10
131.684454
20
162.848679
11
132.181174
21
162.761436
0
LINE
8
Layer 1
10
132.181174
20
162.761436
11
132.578874
21
162.834617
0
LINE
8
Layer 1
10
132.578874
20
162.834617
11
132.872452
21
163.052105
0
LINE
8
Layer 1
10
132.872452
20
163.052105
11
133.056803
21
163.397783
0
LINE
8
Layer 1
10
133.056803
20
163.397783
11
133.077419
21
164.409249
0
LINE
8
Layer 1
10
133.077419
20
164.409249
11
132.599901
21
165.740083
0
LINE
8
Layer 1
10
132.599901
20
165.740083
11
131.908675
21
166.822642
0
LINE
8
Layer 1
10
131.908675
20
166.822642
11
130.945767
21
167.935103
0
LINE
8
Layer 1
10
130.945767
20
167.935103
11
128.385234
21
170.119358
0
LINE
8
Layer 1
10
128.385234
20
170.119358
11
125.278946
21
172.032110
0
LINE
8
Layer 1
10
125.278946
20
172.032110
11
123.633845
21
172.805191
0
LINE
8
Layer 1
10
123.633845
20
172.805191
11
121.987547
21
173.412618
0
LINE
8
Layer 1
10
121.987547
20
173.412618
11
119.968210
21
174.313578
0
LINE
8
Layer 1
10
119.968210
20
174.313578
11
119.240986
21
174.871939
0
LINE
8
Layer 1
10
119.240986
20
174.871939
11
118.705661
21
175.499195
0
LINE
8
Layer 1
10
118.705661
20
175.499195
11
117.927071
21
177.521388
0
LINE
8
Layer 1
10
117.927071
20
177.521388
11
117.386822
21
179.478480
0
LINE
8
Layer 1
10
117.386822
20
179.478480
11
116.586168
21
181.671969
0
LINE
8
Layer 1
10
116.586168
20
181.671969
11
115.454339
21
183.977332
0
LINE
8
Layer 1
10
115.454339
20
183.977332
11
114.138294
21
186.099924
0
LINE
8
Layer 1
10
114.138294
20
186.099924
11
112.784994
21
187.745102
0
LINE
8
Layer 1
10
112.784994
20
187.745102
11
111.308895
21
188.909849
0
LINE
8
Layer 1
10
111.308895
20
188.909849
11
110.612629
21
189.204044
0
LINE
8
Layer 1
10
110.612629
20
189.204044
11
109.920961
21
189.306333
0
LINE
8
Layer 1
10
109.920961
20
189.306333
11
109.216449
21
189.216876
0
LINE
8
Layer 1
10
109.216449
20
189.216876
11
108.481650
21
188.935834
0
LINE
8
Layer 1
10
108.481650
20
188.935834
11
106.851422
21
187.799636
0
LINE
8
Layer 1
10
106.851422
20
187.799636
11
105.775549
21
187.102957
0
LINE
8
Layer 1
10
105.775549
20
187.102957
11
104.593644
21
186.785052
0
LINE
8
Layer 1
10
104.593644
20
186.785052
11
103.274012
21
186.613276
0
LINE
8
Layer 1
10
103.274012
20
186.613276
11
102.505689
21
186.404646
0
LINE
8
Layer 1
10
102.505689
20
186.404646
11
102.092146
21
186.068590
0
LINE
8
Layer 1
10
102.092146
20
186.068590
11
101.836861
21
185.514536
0
LINE
8
Layer 1
10
101.836861
20
185.514536
11
101.590977
21
184.329005
0
LINE
8
Layer 1
10
101.590977
20
184.329005
11
101.582832
21
182.939411
0
LINE
8
Layer 1
10
101.582832
20
182.939411
11
101.794174
21
181.404905
0
LINE
8
Layer 1
10
101.794174
20
181.404905
11
102.206748
21
179.784641
0
LINE
8
Layer 1
10
102.206748
20
179.784641
11
102.802305
21
178.137770
0
LINE
8
Layer 1
10
102.802305
20
178.137770
11
103.562589
21
176.523445
0
LINE
8
Layer 1
10
103.562589
20
176.523445
11
104.469351
21
175.000819
0
LINE
8
Layer 1
10
104.469351
20
175.000819
11
105.504336
21
173.629043
0
LINE
8
Layer 1
10
105.504336
20
173.629043
11
107.041638
21
172.028051
0
LINE
8
Layer 1
10
107.041638
20
172.028051
11
108.597962
21
170.457503
0
LINE
8
Layer 1
10
108.597962
20
170.457503
11
109.898644
21
169.212793
0
LINE
8
Layer 1
10
109.898644
20
169.212793
11
110.668573
21
168.199726
0
LINE
8
Layer 1
10
110.668573
20
168.199726
11
111.009419
21
166.388600
0
LINE
8
Layer 1
10
111.009419
20
166.388600
11
111.257162
21
162.823751
0
LINE
8
Layer 1
10
111.257162
20
162.823751
11
111.315723
21
159.581140
0
LINE
8
Layer 1
10
111.315723
20
159.581140
11
111.107374
21
157.303144
0
LINE
8
Layer 1
10
111.107374
20
157.303144
11
110.558188
21
155.601380
0
LINE
8
Layer 1
10
110.558188
20
155.601380
11
109.594235
21
154.087463
0
LINE
8
Layer 1
10
109.594235
20
154.087463
11
107.766629
21
152.199282
0
LINE
8
Layer 1
10
107.766629
20
152.199282
11
105.280752
21
150.387682
0
LINE
8
Layer 1
10
105.280752
20
150.387682
11
102.203669
21
148.694909
0
LINE
8
Layer 1
10
102.203669
20
148.694909
11
98.602444
21
147.163209
0
LINE
8
Layer 1
10
98.602444
20
147.163209
11
97.217017
21
146.550698
0
LINE
8
Layer 1
10
97.217017
20
146.550698
11
95.811985
21
145.757704
0
LINE
8
Layer 1
10
95.811985
20
145.757704
11
94.478298
21
144.841003
0
LINE
8
Layer 1
10
94.478298
20
144.841003
11
93.306906
21
143.857373
0
LINE
8
Layer 1
10
93.306906
20
143.857373
11
92.284042
21
142.894112
0
LINE
8
Layer 1
10
92.284042
20
142.894112
11
92.942650
21
142.235504
0
LINE
8
Layer 1
10
92.942650
20
142.235504
11
93.478776
21
141.539526
0
LINE
8
Layer 1
10
93.478776
20
141.539526
11
93.778850
21
140.770776
0
LINE
8
Layer 1
10
93.778850
20
140.770776
11
93.838104
21
139.950346
0
LINE
8
Layer 1
10
93.838104
20
139.950346
11
93.651770
21
139.099330
0
LINE
8
Layer 1
10
93.651770
20
139.099330
11
93.462621
21
138.183422
0
LINE
8
Layer 1
10
93.462621
20
138.183422
11
93.751592
21
137.321507
0
LINE
8
Layer 1
10
93.751592
20
137.321507
11
94.123847
21
136.303220
0
LINE
8
Layer 1
10
94.123847
20
136.303220
11
94.174015
21
135.319218
0
LINE
8
Layer 1
10
94.174015
20
135.319218
11
93.903262
21
134.379677
0
LINE
8
Layer 1
10
93.903262
20
134.379677
11
93.312756
21
133.494772
0
LINE
8
Layer 1
10
93.312756
20
133.494772
11
92.536931
21
132.790217
0
LINE
8
Layer 1
10
92.536931
20
132.790217
11
91.901645
21
132.497172
0
LINE
8
Layer 1
10
91.901645
20
132.497172
11
91.631529
21
132.448761
0
LINE
8
Layer 1
10
91.631529
20
132.448761
11
91.468272
21
132.267474
0
LINE
8
Layer 1
10
91.468272
20
132.267474
11
91.366436
21
131.289970
0
LINE
8
Layer 1
10
91.366436
20
131.289970
11
91.253415
21
130.294441
0
LINE
8
Layer 1
10
91.253415
20
130.294441
11
90.909104
21
129.484350
0
LINE
8
Layer 1
10
90.909104
20
129.484350
11
90.325626
21
128.847414
0
LINE
8
Layer 1
10
90.325626
20
128.847414
11
89.495108
21
128.371352
0
LINE
8
Layer 1
10
89.495108
20
128.371352
11
88.823539
21
128.004844
0
LINE
8
Layer 1
10
88.823539
20
128.004844
11
88.544214
21
127.681592
0
LINE
8
Layer 1
10
88.544214
20
127.681592
11
88.900810
21
126.719129
0
LINE
8
Layer 1
10
88.900810
20
126.719129
11
89.812637
21
125.495131
0
LINE
8
Layer 1
10
89.812637
20
125.495131
11
91.042752
21
124.279473
0
LINE
8
Layer 1
10
91.042752
20
124.279473
11
92.354214
21
123.342030
0
LINE
8
Layer 1
10
92.354214
20
123.342030
11
93.200880
21
122.870951
0
LINE
8
Layer 1
10
93.200880
20
122.870951
11
92.081322
21
123.019589
0
LINE
8
Layer 1
10
92.081322
20
123.019589
11
91.067561
21
123.289485
0
LINE
8
Layer 1
10
91.067561
20
123.289485
11
90.202368
21
123.729668
0
LINE
8
Layer 1
10
90.202368
20
123.729668
11
89.546530
21
124.116771
0
LINE
8
Layer 1
10
89.546530
20
124.116771
11
89.389142
21
124.063638
0
LINE
8
Layer 1
10
89.389142
20
124.063638
11
89.275816
21
123.855505
0
LINE
8
Layer 1
10
89.275816
20
123.855505
11
89.095727
21
123.061137
0
LINE
8
Layer 1
10
89.095727
20
123.061137
11
89.166195
21
122.273367
0
LINE
8
Layer 1
10
89.166195
20
122.273367
11
89.486358
21
121.495643
0
LINE
8
Layer 1
10
89.486358
20
121.495643
11
90.055356
21
120.731413
0
LINE
8
Layer 1
10
90.055356
20
120.731413
11
91.002053
21
119.698389
0
LINE
8
Layer 1
10
91.002053
20
119.698389
11
94.383016
21
119.487123
0
LINE
8
Layer 1
10
94.383016
20
119.487123
11
98.552155
21
119.113450
0
LINE
8
Layer 1
10
98.552155
20
119.113450
11
101.912519
21
118.362953
0
LINE
8
Layer 1
10
101.912519
20
118.362953
11
103.910080
21
117.926004
0
LINE
8
Layer 1
10
103.910080
20
117.926004
11
105.875782
21
117.671177
0
LINE
8
Layer 1
10
105.875782
20
117.671177
11
107.549596
21
117.620311
0
LINE
8
Layer 1
10
107.549596
20
117.620311
11
108.671495
21
117.795246
0
LINE
8
Layer 1
10
108.671495
20
117.795246
11
109.275456
21
118.167534
0
LINE
8
Layer 1
10
109.275456
20
118.167534
11
109.277508
21
118.739059
0
LINE
8
Layer 1
10
109.277508
20
118.739059
11
108.944964
21
119.393032
0
LINE
8
Layer 1
10
108.944964
20
119.393032
11
108.410914
21
120.073959
0
LINE
8
Layer 1
10
108.410914
20
120.073959
11
107.984480
21
120.439007
0
LINE
8
Layer 1
10
107.984480
20
120.439007
11
107.474273
21
120.667069
0
LINE
8
Layer 1
10
107.474273
20
120.667069
11
105.619189
21
120.880841
0
LINE
8
Layer 1
10
105.619189
20
120.880841
11
103.560587
21
120.839241
0
LINE
8
Layer 1
10
103.560587
20
120.839241
11
101.598501
21
120.539995
0
LINE
8
Layer 1
10
101.598501
20
120.539995
11
98.047808
21
119.825506
0
LINE
8
Layer 1
10
98.047808
20
119.825506
11
97.016980
21
119.722408
0
LINE
8
Layer 1
10
97.016980
20
119.722408
11
96.583585
21
119.803585
0
LINE
8
Layer 1
10
96.583585
20
119.803585
11
96.800372
21
120.011389
0
LINE
8
Layer 1
10
96.800372
20
120.011389
11
97.507239
21
120.210605
0
LINE
8
Layer 1
10
97.507239
20
120.210605
11
101.228882
21
121.329820
0
LINE
8
Layer 1
10
101.228882
20
121.329820
11
104.790048
21
122.814594
0
LINE
8
Layer 1
10
104.790048
20
122.814594
11
106.062201
21
123.722192
0
LINE
8
Layer 1
10
106.062201
20
123.722192
11
107.058952
21
124.843125
0
LINE
8
Layer 1
10
107.058952
20
124.843125
11
107.772221
21
126.134033
0
LINE
8
Layer 1
10
107.772221
20
126.134033
11
108.193930
21
127.551558
0
LINE
8
Layer 1
10
108.193930
20
127.551558
11
108.315998
21
129.052339
0
LINE
8
Layer 1
10
108.315998
20
129.052339
11
108.130347
21
130.593017
0
LINE
8
Layer 1
10
108.130347
20
130.593017
11
107.628897
21
132.130233
0
LINE
8
Layer 1
10
107.628897
20
132.130233
11
106.803568
21
133.620626
0
LINE
8
Layer 1
10
106.803568
20
133.620626
11
105.429492
21
135.347208
0
LINE
8
Layer 1
10
105.429492
20
135.347208
11
103.895923
21
136.619540
0
LINE
8
Layer 1
10
103.895923
20
136.619540
11
102.003004
21
137.567100
0
LINE
8
Layer 1
10
102.003004
20
137.567100
11
99.550880
21
138.319369
0
LINE
8
Layer 1
10
99.550880
20
138.319369
11
97.434214
21
138.847172
0
LINE
8
Layer 1
10
97.434214
20
138.847172
11
98.973826
21
138.934486
0
LINE
8
Layer 1
10
98.973826
20
138.934486
11
101.137948
21
138.792677
0
LINE
8
Layer 1
10
101.137948
20
138.792677
11
103.172772
21
138.160377
0
LINE
8
Layer 1
10
103.172772
20
138.160377
11
105.018010
21
137.103051
0
LINE
8
Layer 1
10
105.018010
20
137.103051
11
106.613371
21
135.686165
0
LINE
8
Layer 1
10
106.613371
20
135.686165
11
107.898567
21
133.975185
0
LINE
8
Layer 1
10
107.898567
20
133.975185
11
108.813308
21
132.035576
0
LINE
8
Layer 1
10
108.813308
20
132.035576
11
109.297304
21
129.932803
0
LINE
8
Layer 1
10
109.297304
20
129.932803
11
109.290268
21
127.732333
0
LINE
8
Layer 1
10
109.290268
20
127.732333
11
109.028081
21
126.323912
0
LINE
8
Layer 1
10
109.028081
20
126.323912
11
108.587609
21
125.129297
0
LINE
8
Layer 1
10
108.587609
20
125.129297
11
107.919027
21
124.046159
0
LINE
8
Layer 1
10
107.919027
20
124.046159
11
106.972512
21
122.972172
0
LINE
8
Layer 1
10
106.972512
20
122.972172
11
106.110291
21
122.000972
0
LINE
8
Layer 1
10
106.110291
20
122.000972
11
106.103065
21
121.820837
0
LINE
8
Layer 1
10
106.103065
20
121.820837
11
106.340704
21
121.772728
0
LINE
8
Layer 1
10
106.340704
20
121.772728
11
107.096075
21
121.640535
0
LINE
8
Layer 1
10
107.096075
20
121.640535
11
108.016673
21
121.297399
0
LINE
8
Layer 1
10
108.016673
20
121.297399
11
108.923229
21
120.823483
0
LINE
8
Layer 1
10
108.923229
20
120.823483
11
109.636473
21
120.298952
0
LINE
8
Layer 1
10
109.636473
20
120.298952
11
110.132733
21
119.561874
0
LINE
8
Layer 1
10
110.132733
20
119.561874
11
110.275325
21
118.485226
0
LINE
8
Layer 1
10
110.275325
20
118.485226
11
110.131325
21
117.407077
0
LINE
8
Layer 1
10
110.131325
20
117.407077
11
109.879142
21
117.107573
0
LINE
8
Layer 1
10
109.879142
20
117.107573
11
109.442673
21
116.841087
0
LINE
8
Layer 1
10
109.442673
20
116.841087
11
108.185607
21
116.466358
0
LINE
8
Layer 1
10
108.185607
20
116.466358
11
106.393452
21
116.445227
0
LINE
8
Layer 1
10
106.393452
20
116.445227
11
103.864626
21
116.792929
0
LINE
8
Layer 1
10
103.864626
20
116.792929
11
100.397547
21
117.524699
0
LINE
8
Layer 1
10
100.397547
20
117.524699
11
97.488076
21
118.024734
0
LINE
8
Layer 1
10
97.488076
20
118.024734
11
94.257930
21
118.353386
0
LINE
8
Layer 1
10
94.257930
20
118.353386
11
91.858423
21
118.567417
0
LINE
8
Layer 1
10
91.858423
20
118.567417
11
90.350553
21
118.954943
0
LINE
8
Layer 1
10
90.350553
20
118.954943
11
89.403220
21
119.663820
0
LINE
8
Layer 1
10
89.403220
20
119.663820
11
88.685325
21
120.841905
0
LINE
8
Layer 1
10
88.685325
20
120.841905
11
88.089886
21
121.771705
0
LINE
8
Layer 1
10
88.089886
20
121.771705
11
87.785771
21
121.891288
0
LINE
8
Layer 1
10
87.785771
20
121.891288
11
87.378997
21
121.857129
0
LINE
8
Layer 1
10
87.378997
20
121.857129
11
86.729566
21
121.842803
0
LINE
8
Layer 1
10
86.729566
20
121.842803
11
86.444880
21
122.041485
0
LINE
8
Layer 1
10
86.444880
20
122.041485
11
86.560445
21
122.347269
0
LINE
8
Layer 1
10
86.560445
20
122.347269
11
87.111767
21
122.654246
0
LINE
8
Layer 1
10
87.111767
20
122.654246
11
87.870295
21
123.128259
0
LINE
8
Layer 1
10
87.870295
20
123.128259
11
88.432330
21
123.911126
0
LINE
8
Layer 1
10
88.432330
20
123.911126
11
88.669454
21
124.477364
0
LINE
8
Layer 1
10
88.669454
20
124.477364
11
88.727091
21
124.951054
0
LINE
8
Layer 1
10
88.727091
20
124.951054
11
88.244513
21
126.411366
0
LINE
8
Layer 1
10
88.244513
20
126.411366
11
87.690251
21
127.542161
0
LINE
8
Layer 1
10
87.690251
20
127.542161
11
87.257385
21
128.090134
0
LINE
8
Layer 1
10
87.257385
20
128.090134
11
86.823645
21
127.982750
0
LINE
8
Layer 1
10
86.823645
20
127.982750
11
86.267284
21
127.537899
0
LINE
8
Layer 1
10
86.267284
20
127.537899
11
85.619877
21
127.053996
0
LINE
8
Layer 1
10
85.619877
20
127.053996
11
84.967242
21
126.852728
0
LINE
8
Layer 1
10
84.967242
20
126.852728
11
84.578954
21
126.770509
0
LINE
8
Layer 1
10
84.578954
20
126.770509
11
84.337535
21
126.527643
0
LINE
8
Layer 1
10
84.337535
20
126.527643
11
84.245941
21
126.129820
0
LINE
8
Layer 1
10
84.245941
20
126.129820
11
84.307130
21
125.582728
0
LINE
8
Layer 1
10
84.307130
20
125.582728
11
84.418210
21
125.012089
0
LINE
8
Layer 1
10
84.418210
20
125.012089
11
85.235206
21
123.715450
0
LINE
8
Layer 1
10
85.235206
20
123.715450
11
85.865106
21
122.558725
0
LINE
8
Layer 1
10
85.865106
20
122.558725
11
86.004214
21
120.878061
0
LINE
8
Layer 1
10
86.004214
20
120.878061
11
86.122039
21
119.278738
0
LINE
8
Layer 1
10
86.122039
20
119.278738
11
86.315361
21
118.829684
0
LINE
8
Layer 1
10
86.315361
20
118.829684
11
86.639214
21
118.458426
0
LINE
8
Layer 1
10
86.639214
20
118.458426
11
87.623205
21
117.840669
0
LINE
8
Layer 1
10
87.623205
20
117.840669
11
89.183765
21
117.253389
0
LINE
8
Layer 1
10
89.183765
20
117.253389
11
91.253578
21
116.717415
0
LINE
8
Layer 1
10
91.253578
20
116.717415
11
93.765325
21
116.253576
0
LINE
8
Layer 1
10
93.765325
20
116.253576
11
96.564558
21
115.952296
0
LINE
8
Layer 1
10
96.564558
20
115.952296
11
100.336416
21
115.731286
0
LINE
8
Layer 1
10
100.336416
20
115.731286
11
109.399156
21
115.534658
0
LINE
8
Layer 1
10
109.399156
20
115.534658
11
118.155847
21
115.672866
0
LINE
8
Layer 1
10
118.155847
20
115.672866
11
121.545142
21
115.870399
0
LINE
8
Layer 1
10
121.545142
20
115.870399
11
123.808786
21
116.155081
0
LINE
8
Layer 1
10
123.808786
20
116.155081
11
123.808786
21
116.155081
0
LINE
8
Layer 1
10
115.496436
20
155.963496
11
113.782194
21
157.037436
0
LINE
8
Layer 1
10
113.782194
20
157.037436
11
112.928689
21
157.823026
0
LINE
8
Layer 1
10
112.928689
20
157.823026
11
112.874774
21
158.031802
0
LINE
8
Layer 1
10
112.874774
20
158.031802
11
113.096119
21
158.077425
0
LINE
8
Layer 1
10
113.096119
20
158.077425
11
114.444684
21
157.557795
0
LINE
8
Layer 1
10
114.444684
20
157.557795
11
116.239004
21
156.886340
0
LINE
8
Layer 1
10
116.239004
20
156.886340
11
118.607462
21
156.688691
0
LINE
8
Layer 1
10
118.607462
20
156.688691
11
122.693103
21
156.856244
0
LINE
8
Layer 1
10
122.693103
20
156.856244
11
123.826554
21
156.963221
0
LINE
8
Layer 1
10
123.826554
20
156.963221
11
123.996981
21
156.905396
0
LINE
8
Layer 1
10
123.996981
20
156.905396
11
123.934519
21
156.771216
0
LINE
8
Layer 1
10
123.934519
20
156.771216
11
123.360031
21
156.437739
0
LINE
8
Layer 1
10
123.360031
20
156.437739
11
122.411330
21
156.148009
0
LINE
8
Layer 1
10
122.411330
20
156.148009
11
119.865272
21
155.745157
0
LINE
8
Layer 1
10
119.865272
20
155.745157
11
117.244317
21
155.653405
0
LINE
8
Layer 1
10
117.244317
20
155.653405
11
116.201994
21
155.752549
0
LINE
8
Layer 1
10
116.201994
20
155.752549
11
115.496436
21
155.963496
0
LINE
8
Layer 1
10
115.496436
20
155.963496
11
115.496436
21
155.963496
0
LINE
8
Layer 1
10
122.659654
20
162.836933
11
121.996742
21
163.417676
0
LINE
8
Layer 1
10
121.996742
20
163.417676
11
121.440688
21
164.249972
0
LINE
8
Layer 1
10
121.440688
20
164.249972
11
121.121759
21
165.469054
0
LINE
8
Layer 1
10
121.121759
20
165.469054
11
121.295157
21
166.558172
0
LINE
8
Layer 1
10
121.295157
20
166.558172
11
121.855413
21
167.459926
0
LINE
8
Layer 1
10
121.855413
20
167.459926
11
122.697061
21
168.116920
0
LINE
8
Layer 1
10
122.697061
20
168.116920
11
123.714631
21
168.471755
0
LINE
8
Layer 1
10
123.714631
20
168.471755
11
124.802655
21
168.467032
0
LINE
8
Layer 1
10
124.802655
20
168.467032
11
125.855665
21
168.045354
0
LINE
8
Layer 1
10
125.855665
20
168.045354
11
126.768194
21
167.149323
0
LINE
8
Layer 1
10
126.768194
20
167.149323
11
127.200931
21
166.072406
0
LINE
8
Layer 1
10
127.200931
20
166.072406
11
127.182085
21
164.888657
0
LINE
8
Layer 1
10
127.182085
20
164.888657
11
126.750200
21
163.793001
0
LINE
8
Layer 1
10
126.750200
20
163.793001
11
125.943820
21
162.980362
0
LINE
8
Layer 1
10
125.943820
20
162.980362
11
125.127041
21
162.599654
0
LINE
8
Layer 1
10
125.127041
20
162.599654
11
124.293037
21
162.448218
0
LINE
8
Layer 1
10
124.293037
20
162.448218
11
123.463384
21
162.526997
0
LINE
8
Layer 1
10
123.463384
20
162.526997
11
122.659654
21
162.836933
0
LINE
8
Layer 1
10
122.659654
20
162.836933
11
122.659654
21
162.836933
0
LINE
8
Layer 1
10
125.520687
20
163.689188
11
125.727075
21
164.006139
0
LINE
8
Layer 1
10
125.727075
20
164.006139
11
125.435953
21
163.949589
0
LINE
8
Layer 1
10
125.435953
20
163.949589
11
124.951298
21
163.998134
0
LINE
8
Layer 1
10
124.951298
20
163.998134
11
124.422329
21
164.366586
0
LINE
8
Layer 1
10
124.422329
20
164.366586
11
123.996682
21
164.913395
0
LINE
8
Layer 1
10
123.996682
20
164.913395
11
123.821992
21
165.497013
0
LINE
8
Layer 1
10
123.821992
20
165.497013
11
123.949197
21
166.024922
0
LINE
8
Layer 1
10
123.949197
20
166.024922
11
124.286360
21
166.483566
0
LINE
8
Layer 1
10
124.286360
20
166.483566
11
124.766794
21
166.808994
0
LINE
8
Layer 1
10
124.766794
20
166.808994
11
125.323817
21
166.937258
0
LINE
8
Layer 1
10
125.323817
20
166.937258
11
125.783759
21
167.000243
0
LINE
8
Layer 1
10
125.783759
20
167.000243
11
125.390828
21
167.360592
0
LINE
8
Layer 1
10
125.390828
20
167.360592
11
124.709916
21
167.694411
0
LINE
8
Layer 1
10
124.709916
20
167.694411
11
123.967801
21
167.750264
0
LINE
8
Layer 1
10
123.967801
20
167.750264
11
123.230697
21
167.535275
0
LINE
8
Layer 1
10
123.230697
20
167.535275
11
122.564819
21
167.056568
0
LINE
8
Layer 1
10
122.564819
20
167.056568
11
122.045682
21
166.329020
0
LINE
8
Layer 1
10
122.045682
20
166.329020
11
121.868028
21
165.552006
0
LINE
8
Layer 1
10
121.868028
20
165.552006
11
122.032193
21
164.764671
0
LINE
8
Layer 1
10
122.032193
20
164.764671
11
122.538515
21
164.006160
0
LINE
8
Layer 1
10
122.538515
20
164.006160
11
123.256391
21
163.495803
0
LINE
8
Layer 1
10
123.256391
20
163.495803
11
124.106396
21
163.260771
0
LINE
8
Layer 1
10
124.106396
20
163.260771
11
124.918004
21
163.319191
0
LINE
8
Layer 1
10
124.918004
20
163.319191
11
125.520687
21
163.689188
0
LINE
8
Layer 1
10
125.520687
20
163.689188
11
125.520687
21
163.689188
0
LINE
8
Layer 1
10
112.048530
20
171.548422
11
109.895405
21
173.482707
0
LINE
8
Layer 1
10
109.895405
20
173.482707
11
108.138240
21
175.806066
0
LINE
8
Layer 1
10
108.138240
20
175.806066
11
106.807635
21
178.469088
0
LINE
8
Layer 1
10
106.807635
20
178.469088
11
105.934185
21
181.422359
0
LINE
8
Layer 1
10
105.934185
20
181.422359
11
105.630702
21
183.292674
0
LINE
8
Layer 1
10
105.630702
20
183.292674
11
105.494112
21
184.984840
0
LINE
8
Layer 1
10
105.494112
20
184.984840
11
105.533955
21
186.211136
0
LINE
8
Layer 1
10
105.533955
20
186.211136
11
105.759769
21
186.683839
0
LINE
8
Layer 1
10
105.759769
20
186.683839
11
105.959089
21
186.369645
0
LINE
8
Layer 1
10
105.959089
20
186.369645
11
106.041992
21
185.614245
0
LINE
8
Layer 1
10
106.041992
20
185.614245
11
106.325119
21
183.513743
0
LINE
8
Layer 1
10
106.325119
20
183.513743
11
107.075473
21
180.918325
0
LINE
8
Layer 1
10
107.075473
20
180.918325
11
108.144515
21
178.257155
0
LINE
8
Layer 1
10
108.144515
20
178.257155
11
109.383703
21
175.959395
0
LINE
8
Layer 1
10
109.383703
20
175.959395
11
111.208916
21
173.464001
0
LINE
8
Layer 1
10
111.208916
20
173.464001
11
113.274238
21
171.413046
0
LINE
8
Layer 1
10
113.274238
20
171.413046
11
114.101098
21
170.590581
0
LINE
8
Layer 1
10
114.101098
20
170.590581
11
114.190662
21
170.397905
0
LINE
8
Layer 1
10
114.190662
20
170.397905
11
114.085939
21
170.348543
0
LINE
8
Layer 1
10
114.085939
20
170.348543
11
113.358502
21
170.672600
0
LINE
8
Layer 1
10
113.358502
20
170.672600
11
112.048530
21
171.548422
0
LINE
8
Layer 1
10
112.048530
20
171.548422
11
112.048530
21
171.548422
0
LINE
8
Layer 1
10
183.836908
20
115.299501
11
181.596223
21
115.556938
0
LINE
8
Layer 1
10
181.596223
20
115.556938
11
179.880684
21
115.894363
0
LINE
8
Layer 1
10
179.880684
20
115.894363
11
178.611513
21
116.332241
0
LINE
8
Layer 1
10
178.611513
20
116.332241
11
177.709932
21
116.891034
0
LINE
8
Layer 1
10
177.709932
20
116.891034
11
177.027669
21
117.713566
0
LINE
8
Layer 1
10
177.027669
20
117.713566
11
176.879769
21
118.984099
0
LINE
8
Layer 1
10
176.879769
20
118.984099
11
177.087851
21
120.531674
0
LINE
8
Layer 1
10
177.087851
20
120.531674
11
177.664049
21
122.203297
0
LINE
8
Layer 1
10
177.664049
20
122.203297
11
178.536292
21
123.834619
0
LINE
8
Layer 1
10
178.536292
20
123.834619
11
179.632508
21
125.261294
0
LINE
8
Layer 1
10
179.632508
20
125.261294
11
180.912135
21
126.633190
0
LINE
8
Layer 1
10
180.912135
20
126.633190
11
180.746380
21
129.635738
0
LINE
8
Layer 1
10
180.746380
20
129.635738
11
180.525899
21
131.962636
0
LINE
8
Layer 1
10
180.525899
20
131.962636
11
180.072347
21
134.078433
0
LINE
8
Layer 1
10
180.072347
20
134.078433
11
179.272731
21
136.381574
0
LINE
8
Layer 1
10
179.272731
20
136.381574
11
178.014054
21
139.270506
0
LINE
8
Layer 1
10
178.014054
20
139.270506
11
176.791125
21
142.044090
0
LINE
8
Layer 1
10
176.791125
20
142.044090
11
176.092003
21
144.017050
0
LINE
8
Layer 1
10
176.092003
20
144.017050
11
175.808038
21
145.580193
0
LINE
8
Layer 1
10
175.808038
20
145.580193
11
175.830580
21
147.124327
0
LINE
8
Layer 1
10
175.830580
20
147.124327
11
176.200363
21
149.160012
0
LINE
8
Layer 1
10
176.200363
20
149.160012
11
176.869945
21
151.407656
0
LINE
8
Layer 1
10
176.869945
20
151.407656
11
177.501442
21
153.384964
0
LINE
8
Layer 1
10
177.501442
20
153.384964
11
177.608749
21
154.110756
0
LINE
8
Layer 1
10
177.608749
20
154.110756
11
177.563746
21
154.722412
0
LINE
8
Layer 1
10
177.563746
20
154.722412
11
177.356420
21
155.265765
0
LINE
8
Layer 1
10
177.356420
20
155.265765
11
176.976758
21
155.786645
0
LINE
8
Layer 1
10
176.976758
20
155.786645
11
175.660380
21
156.944308
0
LINE
8
Layer 1
10
175.660380
20
156.944308
11
172.636389
21
159.694493
0
LINE
8
Layer 1
10
172.636389
20
159.694493
11
171.928910
21
160.510991
0
LINE
8
Layer 1
10
171.928910
20
160.510991
11
171.542730
21
161.164927
0
LINE
8
Layer 1
10
171.542730
20
161.164927
11
171.364137
21
161.945023
0
LINE
8
Layer 1
10
171.364137
20
161.945023
11
171.279422
21
163.140003
0
LINE
8
Layer 1
10
171.279422
20
163.140003
11
171.306574
21
164.756167
0
LINE
8
Layer 1
10
171.306574
20
164.756167
11
171.701440
21
166.033130
0
LINE
8
Layer 1
10
171.701440
20
166.033130
11
172.646020
21
167.319139
0
LINE
8
Layer 1
10
172.646020
20
167.319139
11
174.322311
21
168.962440
0
LINE
8
Layer 1
10
174.322311
20
168.962440
11
176.079599
21
170.453205
0
LINE
8
Layer 1
10
176.079599
20
170.453205
11
177.832021
21
171.658274
0
LINE
8
Layer 1
10
177.832021
20
171.658274
11
179.691999
21
172.645888
0
LINE
8
Layer 1
10
179.691999
20
172.645888
11
181.771956
21
173.484286
0
LINE
8
Layer 1
10
181.771956
20
173.484286
11
183.982487
21
174.342347
0
LINE
8
Layer 1
10
183.982487
20
174.342347
11
184.716927
21
174.764722
0
LINE
8
Layer 1
10
184.716927
20
174.764722
11
185.278588
21
175.267763
0
LINE
8
Layer 1
10
185.278588
20
175.267763
11
185.723298
21
175.915298
0
LINE
8
Layer 1
10
185.723298
20
175.915298
11
186.106885
21
176.771155
0
LINE
8
Layer 1
10
186.106885
20
176.771155
11
186.914003
21
179.363147
0
LINE
8
Layer 1
10
186.914003
20
179.363147
11
188.215956
21
183.096905
0
LINE
8
Layer 1
10
188.215956
20
183.096905
11
188.756205
21
184.166634
0
LINE
8
Layer 1
10
188.756205
20
184.166634
11
189.488270
21
183.590794
0
LINE
8
Layer 1
10
189.488270
20
183.590794
11
190.605608
21
183.014950
0
LINE
8
Layer 1
10
190.605608
20
183.014950
11
190.877707
21
182.901777
0
LINE
8
Layer 1
10
190.877707
20
182.901777
11
190.990880
21
182.629677
0
LINE
8
Layer 1
10
190.990880
20
182.629677
11
191.575809
21
181.500788
0
LINE
8
Layer 1
10
191.575809
20
181.500788
11
192.245583
21
180.925366
0
LINE
8
Layer 1
10
192.245583
20
180.925366
11
193.120783
21
180.757172
0
LINE
8
Layer 1
10
193.120783
20
180.757172
11
193.970367
21
180.598344
0
LINE
8
Layer 1
10
193.970367
20
180.598344
11
194.490244
21
179.965452
0
LINE
8
Layer 1
10
194.490244
20
179.965452
11
195.164714
21
179.168418
0
LINE
8
Layer 1
10
195.164714
20
179.168418
11
196.108637
21
178.659556
0
LINE
8
Layer 1
10
196.108637
20
178.659556
11
197.129060
21
178.504117
0
LINE
8
Layer 1
10
197.129060
20
178.504117
11
198.033025
21
178.767356
0
LINE
8
Layer 1
10
198.033025
20
178.767356
11
198.258825
21
178.840242
0
LINE
8
Layer 1
10
198.258825
20
178.840242
11
198.494396
21
178.760032
0
LINE
8
Layer 1
10
198.494396
20
178.760032
11
199.085302
21
178.081364
0
LINE
8
Layer 1
10
199.085302
20
178.081364
11
199.827760
21
177.309024
0
LINE
8
Layer 1
10
199.827760
20
177.309024
11
200.726348
21
176.806456
0
LINE
8
Layer 1
10
200.726348
20
176.806456
11
201.725036
21
176.476860
0
LINE
8
Layer 1
10
201.725036
20
176.476860
11
201.085182
21
175.300905
0
LINE
8
Layer 1
10
201.085182
20
175.300905
11
199.780399
21
173.617799
0
LINE
8
Layer 1
10
199.780399
20
173.617799
11
197.541893
21
171.222520
0
LINE
8
Layer 1
10
197.541893
20
171.222520
11
195.416912
21
168.976911
0
LINE
8
Layer 1
10
195.416912
20
168.976911
11
194.385077
21
167.653648
0
LINE
8
Layer 1
10
194.385077
20
167.653648
11
194.180060
21
165.785697
0
LINE
8
Layer 1
10
194.180060
20
165.785697
11
194.042956
21
162.230522
0
LINE
8
Layer 1
10
194.042956
20
162.230522
11
194.066043
21
157.885181
0
LINE
8
Layer 1
10
194.066043
20
157.885181
11
194.286674
21
156.882223
0
LINE
8
Layer 1
10
194.286674
20
156.882223
11
194.729470
21
155.895235
0
LINE
8
Layer 1
10
194.729470
20
155.895235
11
196.005557
21
153.928369
0
LINE
8
Layer 1
10
196.005557
20
153.928369
11
197.839329
21
152.135875
0
LINE
8
Layer 1
10
197.839329
20
152.135875
11
200.287969
21
150.471595
0
LINE
8
Layer 1
10
200.287969
20
150.471595
11
203.408658
21
148.889373
0
LINE
8
Layer 1
10
203.408658
20
148.889373
11
207.074140
21
147.213344
0
LINE
8
Layer 1
10
207.074140
20
147.213344
11
209.367336
21
146.025420
0
LINE
8
Layer 1
10
209.367336
20
146.025420
11
210.906277
21
144.962609
0
LINE
8
Layer 1
10
210.906277
20
144.962609
11
212.308999
21
143.661920
0
LINE
8
Layer 1
10
212.308999
20
143.661920
11
214.081388
21
141.644210
0
LINE
8
Layer 1
10
214.081388
20
141.644210
11
215.381905
21
139.519185
0
LINE
8
Layer 1
10
215.381905
20
139.519185
11
216.337461
21
137.027119
0
LINE
8
Layer 1
10
216.337461
20
137.027119
11
217.074970
21
133.908284
0
LINE
8
Layer 1
10
217.074970
20
133.908284
11
217.765666
21
130.867126
0
LINE
8
Layer 1
10
217.765666
20
130.867126
11
218.092087
21
130.224478
0
LINE
8
Layer 1
10
218.092087
20
130.224478
11
218.530777
21
129.816061
0
LINE
8
Layer 1
10
218.530777
20
129.816061
11
219.861351
21
128.805026
0
LINE
8
Layer 1
10
219.861351
20
128.805026
11
220.622343
21
128.034024
0
LINE
8
Layer 1
10
220.622343
20
128.034024
11
220.966745
21
127.293910
0
LINE
8
Layer 1
10
220.966745
20
127.293910
11
221.047547
21
126.375538
0
LINE
8
Layer 1
10
221.047547
20
126.375538
11
220.856156
21
124.993025
0
LINE
8
Layer 1
10
220.856156
20
124.993025
11
220.130325
21
123.576012
0
LINE
8
Layer 1
10
220.130325
20
123.576012
11
219.381627
21
122.098762
0
LINE
8
Layer 1
10
219.381627
20
122.098762
11
219.213103
21
120.456661
0
LINE
8
Layer 1
10
219.213103
20
120.456661
11
219.091301
21
118.977194
0
LINE
8
Layer 1
10
219.091301
20
118.977194
11
218.897482
21
118.540947
0
LINE
8
Layer 1
10
218.897482
20
118.540947
11
218.578103
21
118.174214
0
LINE
8
Layer 1
10
218.578103
20
118.174214
11
217.899255
21
117.678705
0
LINE
8
Layer 1
10
217.899255
20
117.678705
11
216.966069
21
117.218502
0
LINE
8
Layer 1
10
216.966069
20
117.218502
11
214.363518
21
116.410376
0
LINE
8
Layer 1
10
214.363518
20
116.410376
11
210.824124
21
115.762560
0
LINE
8
Layer 1
10
210.824124
20
115.762560
11
206.401563
21
115.287778
0
LINE
8
Layer 1
10
206.401563
20
115.287778
11
201.654877
21
115.104311
0
LINE
8
Layer 1
10
201.654877
20
115.104311
11
194.971523
21
115.045806
0
LINE
8
Layer 1
10
194.971523
20
115.045806
11
188.362025
21
115.111218
0
LINE
8
Layer 1
10
188.362025
20
115.111218
11
183.836908
21
115.299501
0
LINE
8
Layer 1
10
183.836908
20
115.299501
11
183.836908
21
115.299501
0
LINE
8
Layer 1
10
207.359769
20
115.859791
11
211.298613
21
116.339266
0
LINE
8
Layer 1
10
211.298613
20
116.339266
11
214.613773
21
116.981936
0
LINE
8
Layer 1
10
214.613773
20
116.981936
11
217.050208
21
117.726294
0
LINE
8
Layer 1
10
217.050208
20
117.726294
11
217.859204
21
118.117387
0
LINE
8
Layer 1
10
217.859204
20
118.117387
11
218.352878
21
118.510837
0
LINE
8
Layer 1
10
218.352878
20
118.510837
11
218.607170
21
119.327246
0
LINE
8
Layer 1
10
218.607170
20
119.327246
11
218.769065
21
120.748504
0
LINE
8
Layer 1
10
218.769065
20
120.748504
11
219.018164
21
122.498123
0
LINE
8
Layer 1
10
219.018164
20
122.498123
11
219.744688
21
123.928327
0
LINE
8
Layer 1
10
219.744688
20
123.928327
11
220.486911
21
125.452734
0
LINE
8
Layer 1
10
220.486911
20
125.452734
11
220.615290
21
126.149988
0
LINE
8
Layer 1
10
220.615290
20
126.149988
11
220.582024
21
126.802974
0
LINE
8
Layer 1
10
220.582024
20
126.802974
11
220.387243
21
127.410967
0
LINE
8
Layer 1
10
220.387243
20
127.410967
11
220.031078
21
127.973243
0
LINE
8
Layer 1
10
220.031078
20
127.973243
11
218.835122
21
128.957736
0
LINE
8
Layer 1
10
218.835122
20
128.957736
11
217.994384
21
129.553591
0
LINE
8
Layer 1
10
217.994384
20
129.553591
11
217.428572
21
130.253601
0
LINE
8
Layer 1
10
217.428572
20
130.253601
11
217.062065
21
131.190538
0
LINE
8
Layer 1
10
217.062065
20
131.190538
11
216.819243
21
132.497172
0
LINE
8
Layer 1
10
216.819243
20
132.497172
11
216.133697
21
135.962547
0
LINE
8
Layer 1
10
216.133697
20
135.962547
11
215.248913
21
138.868554
0
LINE
8
Layer 1
10
215.248913
20
138.868554
11
214.561463
21
140.101617
0
LINE
8
Layer 1
10
214.561463
20
140.101617
11
213.525712
21
141.532674
0
LINE
8
Layer 1
10
213.525712
20
141.532674
11
211.136326
21
144.155075
0
LINE
8
Layer 1
10
211.136326
20
144.155075
11
208.816880
21
145.890070
0
LINE
8
Layer 1
10
208.816880
20
145.890070
11
205.101992
21
147.610779
0
LINE
8
Layer 1
10
205.101992
20
147.610779
11
202.635470
21
148.692313
0
LINE
8
Layer 1
10
202.635470
20
148.692313
11
200.483862
21
149.803376
0
LINE
8
Layer 1
10
200.483862
20
149.803376
11
198.636371
21
150.953345
0
LINE
8
Layer 1
10
198.636371
20
150.953345
11
197.082201
21
152.151595
0
LINE
8
Layer 1
10
197.082201
20
152.151595
11
195.810555
21
153.407505
0
LINE
8
Layer 1
10
195.810555
20
153.407505
11
194.810637
21
154.730450
0
LINE
8
Layer 1
10
194.810637
20
154.730450
11
194.071650
21
156.129806
0
LINE
8
Layer 1
10
194.071650
20
156.129806
11
193.582798
21
157.614950
0
LINE
8
Layer 1
10
193.582798
20
157.614950
11
193.411907
21
159.860004
0
LINE
8
Layer 1
10
193.411907
20
159.860004
11
193.502061
21
163.155134
0
LINE
8
Layer 1
10
193.502061
20
163.155134
11
193.788480
21
166.378921
0
LINE
8
Layer 1
10
193.788480
20
166.378921
11
194.206385
21
168.409950
0
LINE
8
Layer 1
10
194.206385
20
168.409950
11
194.616409
21
169.157398
0
LINE
8
Layer 1
10
194.616409
20
169.157398
11
194.954906
21
169.468284
0
LINE
8
Layer 1
10
194.954906
20
169.468284
11
195.829902
21
170.125519
0
LINE
8
Layer 1
10
195.829902
20
170.125519
11
197.419873
21
171.684437
0
LINE
8
Layer 1
10
197.419873
20
171.684437
11
199.124833
21
173.525859
0
LINE
8
Layer 1
10
199.124833
20
173.525859
11
200.344794
21
175.030601
0
LINE
8
Layer 1
10
200.344794
20
175.030601
11
200.883533
21
175.890521
0
LINE
8
Layer 1
10
200.883533
20
175.890521
11
200.975791
21
176.107842
0
LINE
8
Layer 1
10
200.975791
20
176.107842
11
200.924606
21
176.135084
0
LINE
8
Layer 1
10
200.924606
20
176.135084
11
200.424836
21
176.114681
0
LINE
8
Layer 1
10
200.424836
20
176.114681
11
199.663248
21
176.337553
0
LINE
8
Layer 1
10
199.663248
20
176.337553
11
198.791332
21
176.591236
0
LINE
8
Layer 1
10
198.791332
20
176.591236
11
198.185772
21
176.346530
0
LINE
8
Layer 1
10
198.185772
20
176.346530
11
197.145828
21
175.959395
0
LINE
8
Layer 1
10
197.145828
20
175.959395
11
196.785285
21
175.883172
0
LINE
8
Layer 1
10
196.785285
20
175.883172
11
196.635325
21
175.699917
0
LINE
8
Layer 1
10
196.635325
20
175.699917
11
196.200155
21
175.025640
0
LINE
8
Layer 1
10
196.200155
20
175.025640
11
195.149488
21
173.823576
0
LINE
8
Layer 1
10
195.149488
20
173.823576
11
192.730707
21
171.486178
0
LINE
8
Layer 1
10
192.730707
20
171.486178
11
191.504984
21
170.620358
0
LINE
8
Layer 1
10
191.504984
20
170.620358
11
191.194924
21
170.487689
0
LINE
8
Layer 1
10
191.194924
20
170.487689
11
191.087171
21
170.545044
0
LINE
8
Layer 1
10
191.087171
20
170.545044
11
191.479903
21
171.199417
0
LINE
8
Layer 1
10
191.479903
20
171.199417
11
192.685814
21
172.522656
0
LINE
8
Layer 1
10
192.685814
20
172.522656
11
194.230393
21
174.170211
0
LINE
8
Layer 1
10
194.230393
20
174.170211
11
194.986949
21
175.262820
0
LINE
8
Layer 1
10
194.986949
20
175.262820
11
195.101964
21
175.673522
0
LINE
8
Layer 1
10
195.101964
20
175.673522
11
195.058668
21
176.032490
0
LINE
8
Layer 1
10
195.058668
20
176.032490
11
194.548740
21
176.711226
0
LINE
8
Layer 1
10
194.548740
20
176.711226
11
194.029196
21
177.355426
0
LINE
8
Layer 1
10
194.029196
20
177.355426
11
193.813103
21
177.946372
0
LINE
8
Layer 1
10
193.813103
20
177.946372
11
193.767552
21
178.226331
0
LINE
8
Layer 1
10
193.767552
20
178.226331
11
193.595752
21
178.394927
0
LINE
8
Layer 1
10
193.595752
20
178.394927
11
192.662505
21
178.499395
0
LINE
8
Layer 1
10
192.662505
20
178.499395
11
191.523773
21
178.710346
0
LINE
8
Layer 1
10
191.523773
20
178.710346
11
190.639002
21
179.303422
0
LINE
8
Layer 1
10
190.639002
20
179.303422
11
190.065854
21
180.218955
0
LINE
8
Layer 1
10
190.065854
20
180.218955
11
189.861992
21
181.397278
0
LINE
8
Layer 1
10
189.861992
20
181.397278
11
189.734999
21
182.457736
0
LINE
8
Layer 1
10
189.734999
20
182.457736
11
189.337973
21
183.119477
0
LINE
8
Layer 1
10
189.337973
20
183.119477
11
189.032159
21
183.349664
0
LINE
8
Layer 1
10
189.032159
20
183.349664
11
188.807236
21
183.296663
0
LINE
8
Layer 1
10
188.807236
20
183.296663
11
188.242355
21
181.963774
0
LINE
8
Layer 1
10
188.242355
20
181.963774
11
186.912868
21
177.832506
0
LINE
8
Layer 1
10
186.912868
20
177.832506
11
186.191185
21
175.871892
0
LINE
8
Layer 1
10
186.191185
20
175.871892
11
185.522198
21
174.698392
0
LINE
8
Layer 1
10
185.522198
20
174.698392
11
184.499923
21
174.062077
0
LINE
8
Layer 1
10
184.499923
20
174.062077
11
182.930704
21
173.420803
0
LINE
8
Layer 1
10
182.930704
20
173.420803
11
179.312017
21
171.945969
0
LINE
8
Layer 1
10
179.312017
20
171.945969
11
177.040195
21
170.565884
0
LINE
8
Layer 1
10
177.040195
20
170.565884
11
175.226046
21
169.124235
0
LINE
8
Layer 1
10
175.226046
20
169.124235
11
174.051668
21
168.156083
0
LINE
8
Layer 1
10
174.051668
20
168.156083
11
172.870019
21
166.902648
0
LINE
8
Layer 1
10
172.870019
20
166.902648
11
171.954661
21
165.455682
0
LINE
8
Layer 1
10
171.954661
20
165.455682
11
171.577787
21
164.172297
0
LINE
8
Layer 1
10
171.577787
20
164.172297
11
171.634825
21
163.262102
0
LINE
8
Layer 1
10
171.634825
20
163.262102
11
171.817782
21
162.968814
0
LINE
8
Layer 1
10
171.817782
20
162.968814
11
172.099283
21
162.795061
0
LINE
8
Layer 1
10
172.099283
20
162.795061
11
172.944666
21
162.841141
0
LINE
8
Layer 1
10
172.944666
20
162.841141
11
173.467822
21
162.904057
0
LINE
8
Layer 1
10
173.467822
20
162.904057
11
173.599435
21
162.715700
0
LINE
8
Layer 1
10
173.599435
20
162.715700
11
173.365480
21
162.403193
0
LINE
8
Layer 1
10
173.365480
20
162.403193
11
172.791933
21
162.093664
0
LINE
8
Layer 1
10
172.791933
20
162.093664
11
172.091217
21
161.772182
0
LINE
8
Layer 1
10
172.091217
20
161.772182
11
171.799769
21
161.503061
0
LINE
8
Layer 1
10
171.799769
20
161.503061
11
172.198128
21
160.864656
0
LINE
8
Layer 1
10
172.198128
20
160.864656
11
173.219211
21
159.750166
0
LINE
8
Layer 1
10
173.219211
20
159.750166
11
176.085599
21
157.152617
0
LINE
8
Layer 1
10
176.085599
20
157.152617
11
177.433938
21
155.941454
0
LINE
8
Layer 1
10
177.433938
20
155.941454
11
177.815098
21
155.396962
0
LINE
8
Layer 1
10
177.815098
20
155.396962
11
178.014807
21
154.817045
0
LINE
8
Layer 1
10
178.014807
20
154.817045
11
178.043479
21
154.144587
0
LINE
8
Layer 1
10
178.043479
20
154.144587
11
177.911529
21
153.322476
0
LINE
8
Layer 1
10
177.911529
20
153.322476
11
177.207424
21
151.000833
0
LINE
8
Layer 1
10
177.207424
20
151.000833
11
176.440447
21
148.254464
0
LINE
8
Layer 1
10
176.440447
20
148.254464
11
176.281317
21
147.079200
0
LINE
8
Layer 1
10
176.281317
20
147.079200
11
176.277015
21
145.957126
0
LINE
8
Layer 1
10
176.277015
20
145.957126
11
176.748664
21
143.636284
0
LINE
8
Layer 1
10
176.748664
20
143.636284
11
177.886930
21
140.819403
0
LINE
8
Layer 1
10
177.886930
20
140.819403
11
178.696047
21
138.988284
0
LINE
8
Layer 1
10
178.696047
20
138.988284
11
179.625346
21
136.710609
0
LINE
8
Layer 1
10
179.625346
20
136.710609
11
180.410786
21
134.528912
0
LINE
8
Layer 1
10
180.410786
20
134.528912
11
180.977023
21
132.292313
0
LINE
8
Layer 1
10
180.977023
20
132.292313
11
181.296747
21
130.136224
0
LINE
8
Layer 1
10
181.296747
20
130.136224
11
181.342645
21
128.196061
0
LINE
8
Layer 1
10
181.342645
20
128.196061
11
181.255645
21
127.112436
0
LINE
8
Layer 1
10
181.255645
20
127.112436
11
181.078058
21
126.394340
0
LINE
8
Layer 1
10
181.078058
20
126.394340
11
180.708529
21
125.798322
0
LINE
8
Layer 1
10
180.708529
20
125.798322
11
180.045701
21
125.080934
0
LINE
8
Layer 1
10
180.045701
20
125.080934
11
179.204998
21
124.130738
0
LINE
8
Layer 1
10
179.204998
20
124.130738
11
178.855325
21
123.549452
0
LINE
8
Layer 1
10
178.855325
20
123.549452
11
178.607426
21
123.136801
0
LINE
8
Layer 1
10
178.607426
20
123.136801
11
178.375953
21
122.808789
0
LINE
8
Layer 1
10
178.375953
20
122.808789
11
178.167546
21
122.152269
0
LINE
8
Layer 1
10
178.167546
20
122.152269
11
178.158193
21
121.290540
0
LINE
8
Layer 1
10
178.158193
20
121.290540
11
178.768223
21
120.526243
0
LINE
8
Layer 1
10
178.768223
20
120.526243
11
179.491921
21
119.963548
0
LINE
8
Layer 1
10
179.491921
20
119.963548
11
180.301724
21
119.527496
0
LINE
8
Layer 1
10
180.301724
20
119.527496
11
182.096721
21
119.044980
0
LINE
8
Layer 1
10
182.096721
20
119.044980
11
183.987359
21
119.098023
0
LINE
8
Layer 1
10
183.987359
20
119.098023
11
185.807787
21
119.705950
0
LINE
8
Layer 1
10
185.807787
20
119.705950
11
186.800912
21
120.365324
0
LINE
8
Layer 1
10
186.800912
20
120.365324
11
187.334499
21
121.208226
0
LINE
8
Layer 1
10
187.334499
20
121.208226
11
187.482087
21
122.460880
0
LINE
8
Layer 1
10
187.482087
20
122.460880
11
187.317211
21
124.349513
0
LINE
8
Layer 1
10
187.317211
20
124.349513
11
186.985952
21
126.898228
0
LINE
8
Layer 1
10
186.985952
20
126.898228
11
188.343726
21
129.062700
0
LINE
8
Layer 1
10
188.343726
20
129.062700
11
189.106449
21
130.322993
0
LINE
8
Layer 1
10
189.106449
20
130.322993
11
189.513180
21
131.220494
0
LINE
8
Layer 1
10
189.513180
20
131.220494
11
189.677049
21
132.109383
0
LINE
8
Layer 1
10
189.677049
20
132.109383
11
189.711189
21
133.343839
0
LINE
8
Layer 1
10
189.711189
20
133.343839
11
189.516269
21
136.377728
0
LINE
8
Layer 1
10
189.516269
20
136.377728
11
189.401304
21
137.232747
0
LINE
8
Layer 1
10
189.401304
20
137.232747
11
189.460264
21
137.330934
0
LINE
8
Layer 1
10
189.460264
20
137.330934
11
189.579414
21
137.232550
0
LINE
8
Layer 1
10
189.579414
20
137.232550
11
189.945970
21
136.515009
0
LINE
8
Layer 1
10
189.945970
20
136.515009
11
190.396345
21
135.217998
0
LINE
8
Layer 1
10
190.396345
20
135.217998
11
190.821805
21
133.341211
0
LINE
8
Layer 1
10
190.821805
20
133.341211
11
190.806137
21
131.765809
0
LINE
8
Layer 1
10
190.806137
20
131.765809
11
190.301896
21
130.205649
0
LINE
8
Layer 1
10
190.301896
20
130.205649
11
189.261634
21
128.374583
0
LINE
8
Layer 1
10
189.261634
20
128.374583
11
188.154728
21
126.650883
0
LINE
8
Layer 1
10
188.154728
20
126.650883
11
188.483065
21
123.979138
0
LINE
8
Layer 1
10
188.483065
20
123.979138
11
188.644122
21
122.045398
0
LINE
8
Layer 1
10
188.644122
20
122.045398
11
188.508936
21
120.738530
0
LINE
8
Layer 1
10
188.508936
20
120.738530
11
188.008290
21
119.815818
0
LINE
8
Layer 1
10
188.008290
20
119.815818
11
187.072967
21
119.034546
0
LINE
8
Layer 1
10
187.072967
20
119.034546
11
185.926188
21
118.415410
0
LINE
8
Layer 1
10
185.926188
20
118.415410
11
184.691996
21
118.017842
0
LINE
8
Layer 1
10
184.691996
20
118.017842
11
183.418890
21
117.836622
0
LINE
8
Layer 1
10
183.418890
20
117.836622
11
182.155375
21
117.866529
0
LINE
8
Layer 1
10
182.155375
20
117.866529
11
180.949953
21
118.102344
0
LINE
8
Layer 1
10
180.949953
20
118.102344
11
179.851124
21
118.538846
0
LINE
8
Layer 1
10
179.851124
20
118.538846
11
178.907392
21
119.170815
0
LINE
8
Layer 1
10
178.907392
20
119.170815
11
178.167259
21
119.993032
0
LINE
8
Layer 1
10
178.167259
20
119.993032
11
177.499857
21
120.975205
0
LINE
8
Layer 1
10
177.499857
20
120.975205
11
177.308499
21
120.103965
0
LINE
8
Layer 1
10
177.308499
20
120.103965
11
177.191647
21
119.196575
0
LINE
8
Layer 1
10
177.191647
20
119.196575
11
177.281470
21
118.421000
0
LINE
8
Layer 1
10
177.281470
20
118.421000
11
177.594540
21
117.765052
0
LINE
8
Layer 1
10
177.594540
20
117.765052
11
178.147430
21
117.216543
0
LINE
8
Layer 1
10
178.147430
20
117.216543
11
178.956714
21
116.763285
0
LINE
8
Layer 1
10
178.956714
20
116.763285
11
180.038964
21
116.393090
0
LINE
8
Layer 1
10
180.038964
20
116.393090
11
183.088658
21
115.853137
0
LINE
8
Layer 1
10
183.088658
20
115.853137
11
187.552658
21
115.668461
0
LINE
8
Layer 1
10
187.552658
20
115.668461
11
194.906435
21
115.608510
0
LINE
8
Layer 1
10
194.906435
20
115.608510
11
202.419102
21
115.672537
0
LINE
8
Layer 1
10
202.419102
20
115.672537
11
207.359769
21
115.859791
0
LINE
8
Layer 1
10
207.359769
20
115.859791
11
207.359769
21
115.859791
0
LINE
8
Layer 1
10
195.514403
20
116.704951
11
194.973469
21
116.995394
0
LINE
8
Layer 1
10
194.973469
20
116.995394
11
194.625988
21
117.345148
0
LINE
8
Layer 1
10
194.625988
20
117.345148
11
194.439581
21
117.803205
0
LINE
8
Layer 1
10
194.439581
20
117.803205
11
194.381868
21
118.418556
0
LINE
8
Layer 1
10
194.381868
20
118.418556
11
194.482548
21
118.980386
0
LINE
8
Layer 1
10
194.482548
20
118.980386
11
194.768883
21
119.555575
0
LINE
8
Layer 1
10
194.768883
20
119.555575
11
195.765907
21
120.638493
0
LINE
8
Layer 1
10
195.765907
20
120.638493
11
197.107714
21
121.452229
0
LINE
8
Layer 1
10
197.107714
20
121.452229
11
198.529081
21
121.781703
0
LINE
8
Layer 1
10
198.529081
20
121.781703
11
199.128348
21
121.845291
0
LINE
8
Layer 1
10
199.128348
20
121.845291
11
198.751992
21
122.192153
0
LINE
8
Layer 1
10
198.751992
20
122.192153
11
197.328375
21
123.488952
0
LINE
8
Layer 1
10
197.328375
20
123.488952
11
196.314550
21
125.064973
0
LINE
8
Layer 1
10
196.314550
20
125.064973
11
195.708113
21
126.925312
0
LINE
8
Layer 1
10
195.708113
20
126.925312
11
195.506659
21
129.075067
0
LINE
8
Layer 1
10
195.506659
20
129.075067
11
195.662205
21
131.152918
0
LINE
8
Layer 1
10
195.662205
20
131.152918
11
196.337253
21
132.982414
0
LINE
8
Layer 1
10
196.337253
20
132.982414
11
197.042593
21
134.268994
0
LINE
8
Layer 1
10
197.042593
20
134.268994
11
197.868097
21
135.403529
0
LINE
8
Layer 1
10
197.868097
20
135.403529
11
198.810970
21
136.384145
0
LINE
8
Layer 1
10
198.810970
20
136.384145
11
199.868414
21
137.208968
0
LINE
8
Layer 1
10
199.868414
20
137.208968
11
201.037631
21
137.876123
0
LINE
8
Layer 1
10
201.037631
20
137.876123
11
202.315825
21
138.383737
0
LINE
8
Layer 1
10
202.315825
20
138.383737
11
203.700199
21
138.729935
0
LINE
8
Layer 1
10
203.700199
20
138.729935
11
205.187956
21
138.912843
0
LINE
8
Layer 1
10
205.187956
20
138.912843
11
206.688748
21
138.968421
0
LINE
8
Layer 1
10
206.688748
20
138.968421
11
207.254728
21
138.889968
0
LINE
8
Layer 1
10
207.254728
20
138.889968
11
206.873927
21
138.695148
0
LINE
8
Layer 1
10
206.873927
20
138.695148
11
205.534373
21
138.401625
0
LINE
8
Layer 1
10
205.534373
20
138.401625
11
203.758403
21
137.939268
0
LINE
8
Layer 1
10
203.758403
20
137.939268
11
202.107679
21
137.239368
0
LINE
8
Layer 1
10
202.107679
20
137.239368
11
200.615817
21
136.319255
0
LINE
8
Layer 1
10
200.615817
20
136.319255
11
199.316436
21
135.196261
0
LINE
8
Layer 1
10
199.316436
20
135.196261
11
198.037114
21
133.721046
0
LINE
8
Layer 1
10
198.037114
20
133.721046
11
197.211418
21
132.316338
0
LINE
8
Layer 1
10
197.211418
20
132.316338
11
196.769502
21
130.822425
0
LINE
8
Layer 1
10
196.769502
20
130.822425
11
196.641522
21
129.079594
0
LINE
8
Layer 1
10
196.641522
20
129.079594
11
196.750176
21
127.465525
0
LINE
8
Layer 1
10
196.750176
20
127.465525
11
197.080890
21
126.109822
0
LINE
8
Layer 1
10
197.080890
20
126.109822
11
197.656523
21
124.949017
0
LINE
8
Layer 1
10
197.656523
20
124.949017
11
198.499933
21
123.919640
0
LINE
8
Layer 1
10
198.499933
20
123.919640
11
200.274202
21
122.771979
0
LINE
8
Layer 1
10
200.274202
20
122.771979
11
202.189817
21
121.832330
0
LINE
8
Layer 1
10
202.189817
20
121.832330
11
204.193227
21
121.073697
0
LINE
8
Layer 1
10
204.193227
20
121.073697
11
206.230880
21
120.469084
0
LINE
8
Layer 1
10
206.230880
20
120.469084
11
207.734396
21
120.031123
0
LINE
8
Layer 1
10
207.734396
20
120.031123
11
207.806150
21
119.920376
0
LINE
8
Layer 1
10
207.806150
20
119.920376
11
207.480191
21
119.854418
0
LINE
8
Layer 1
10
207.480191
20
119.854418
11
206.251925
21
119.936799
0
LINE
8
Layer 1
10
206.251925
20
119.936799
11
204.516857
21
120.255027
0
LINE
8
Layer 1
10
204.516857
20
120.255027
11
202.173867
21
120.679594
0
LINE
8
Layer 1
10
202.173867
20
120.679594
11
199.995150
21
120.855539
0
LINE
8
Layer 1
10
199.995150
20
120.855539
11
198.178216
21
120.777998
0
LINE
8
Layer 1
10
198.178216
20
120.777998
11
196.920572
21
120.442109
0
LINE
8
Layer 1
10
196.920572
20
120.442109
11
196.108764
21
119.852418
0
LINE
8
Layer 1
10
196.108764
20
119.852418
11
195.643403
21
119.154582
0
LINE
8
Layer 1
10
195.643403
20
119.154582
11
195.570532
21
118.467105
0
LINE
8
Layer 1
10
195.570532
20
118.467105
11
195.936193
21
117.908491
0
LINE
8
Layer 1
10
195.936193
20
117.908491
11
196.873482
21
117.649614
0
LINE
8
Layer 1
10
196.873482
20
117.649614
11
198.455794
21
117.631803
0
LINE
8
Layer 1
10
198.455794
20
117.631803
11
200.364199
21
117.837859
0
LINE
8
Layer 1
10
200.364199
20
117.837859
11
202.279769
21
118.250583
0
LINE
8
Layer 1
10
202.279769
20
118.250583
11
206.572241
21
119.167352
0
LINE
8
Layer 1
10
206.572241
20
119.167352
11
210.543834
21
119.514564
0
LINE
8
Layer 1
10
210.543834
20
119.514564
11
212.394053
21
119.629753
0
LINE
8
Layer 1
10
212.394053
20
119.629753
11
213.712654
21
119.921299
0
LINE
8
Layer 1
10
213.712654
20
119.921299
11
214.743692
21
120.630027
0
LINE
8
Layer 1
10
214.743692
20
120.630027
11
215.473099
21
121.648199
0
LINE
8
Layer 1
10
215.473099
20
121.648199
11
215.788665
21
122.748345
0
LINE
8
Layer 1
10
215.788665
20
122.748345
11
215.756190
21
123.258074
0
LINE
8
Layer 1
10
215.756190
20
123.258074
11
215.578176
21
123.702995
0
LINE
8
Layer 1
10
215.578176
20
123.702995
11
215.409935
21
123.866383
0
LINE
8
Layer 1
10
215.409935
20
123.866383
11
215.158881
21
123.891273
0
LINE
8
Layer 1
10
215.158881
20
123.891273
11
214.182630
21
123.491329
0
LINE
8
Layer 1
10
214.182630
20
123.491329
11
213.134969
21
123.081608
0
LINE
8
Layer 1
10
213.134969
20
123.081608
11
212.239346
21
122.924638
0
LINE
8
Layer 1
10
212.239346
20
122.924638
11
211.451992
21
122.947661
0
LINE
8
Layer 1
10
211.451992
20
122.947661
11
212.383127
21
123.354459
0
LINE
8
Layer 1
10
212.383127
20
123.354459
11
213.440857
21
124.016910
0
LINE
8
Layer 1
10
213.440857
20
124.016910
11
214.560854
21
125.045127
0
LINE
8
Layer 1
10
214.560854
20
125.045127
11
215.591638
21
126.279741
0
LINE
8
Layer 1
10
215.591638
20
126.279741
11
216.381728
21
127.561380
0
LINE
8
Layer 1
10
216.381728
20
127.561380
11
216.946997
21
128.489759
0
LINE
8
Layer 1
10
216.946997
20
128.489759
11
217.108343
21
128.592883
0
LINE
8
Layer 1
10
217.108343
20
128.592883
11
217.184098
21
128.485761
0
LINE
8
Layer 1
10
217.184098
20
128.485761
11
217.064643
21
127.732181
0
LINE
8
Layer 1
10
217.064643
20
127.732181
11
216.560245
21
126.411815
0
LINE
8
Layer 1
10
216.560245
20
126.411815
11
215.841560
21
124.841999
0
LINE
8
Layer 1
10
215.841560
20
124.841999
11
216.543094
21
123.730695
0
LINE
8
Layer 1
10
216.543094
20
123.730695
11
217.356655
21
122.737152
0
LINE
8
Layer 1
10
217.356655
20
122.737152
11
217.738284
21
122.579878
0
LINE
8
Layer 1
10
217.738284
20
122.579878
11
218.181228
21
122.594793
0
LINE
8
Layer 1
10
218.181228
20
122.594793
11
218.313309
21
122.518407
0
LINE
8
Layer 1
10
218.313309
20
122.518407
11
218.296479
21
122.275436
0
LINE
8
Layer 1
10
218.296479
20
122.275436
11
217.968587
21
122.020058
0
LINE
8
Layer 1
10
217.968587
20
122.020058
11
217.352798
21
121.913839
0
LINE
8
Layer 1
10
217.352798
20
121.913839
11
216.692192
21
121.785196
0
LINE
8
Layer 1
10
216.692192
20
121.785196
11
216.447534
21
121.322541
0
LINE
8
Layer 1
10
216.447534
20
121.322541
11
216.060646
21
120.585394
0
LINE
8
Layer 1
10
216.060646
20
120.585394
11
215.249066
21
119.643440
0
LINE
8
Layer 1
10
215.249066
20
119.643440
11
214.135058
21
118.555640
0
LINE
8
Layer 1
10
214.135058
20
118.555640
11
210.535746
21
118.346982
0
LINE
8
Layer 1
10
210.535746
20
118.346982
11
206.351961
21
117.968176
0
LINE
8
Layer 1
10
206.351961
20
117.968176
11
202.703103
21
117.142951
0
LINE
8
Layer 1
10
202.703103
20
117.142951
11
200.806999
21
116.772625
0
LINE
8
Layer 1
10
200.806999
20
116.772625
11
198.653680
21
116.556493
0
LINE
8
Layer 1
10
198.653680
20
116.556493
11
196.727898
21
116.524090
0
LINE
8
Layer 1
10
196.727898
20
116.524090
11
195.514403
21
116.704951
0
LINE
8
Layer 1
10
195.514403
20
116.704951
11
195.514403
21
116.704951
0
LINE
8
Layer 1
10
185.205325
20
155.659286
11
183.212006
21
155.950366
0
LINE
8
Layer 1
10
183.212006
20
155.950366
11
181.677547
21
156.438984
0
LINE
8
Layer 1
10
181.677547
20
156.438984
11
180.407547
21
157.041452
0
LINE
8
Layer 1
10
180.407547
20
157.041452
11
181.959769
21
156.834312
0
LINE
8
Layer 1
10
181.959769
20
156.834312
11
185.947420
21
156.640121
0
LINE
8
Layer 1
10
185.947420
20
156.640121
11
188.273844
21
156.801025
0
LINE
8
Layer 1
10
188.273844
20
156.801025
11
190.173819
21
157.540760
0
LINE
8
Layer 1
10
190.173819
20
157.540760
11
192.090429
21
158.302808
0
LINE
8
Layer 1
10
192.090429
20
158.302808
11
191.532919
21
157.445910
0
LINE
8
Layer 1
10
191.532919
20
157.445910
11
190.380293
21
156.487230
0
LINE
8
Layer 1
10
190.380293
20
156.487230
11
189.003318
21
155.887357
0
LINE
8
Layer 1
10
189.003318
20
155.887357
11
187.309245
21
155.620105
0
LINE
8
Layer 1
10
187.309245
20
155.620105
11
185.205325
21
155.659286
0
LINE
8
Layer 1
10
185.205325
20
155.659286
11
185.205325
21
155.659286
0
LINE
8
Layer 1
10
179.104098
20
162.836933
11
178.520671
21
163.333177
0
LINE
8
Layer 1
10
178.520671
20
163.333177
11
177.986017
21
164.085917
0
LINE
8
Layer 1
10
177.986017
20
164.085917
11
177.595696
21
164.930166
0
LINE
8
Layer 1
10
177.595696
20
164.930166
11
177.445269
21
165.700936
0
LINE
8
Layer 1
10
177.445269
20
165.700936
11
177.630405
21
166.509541
0
LINE
8
Layer 1
10
177.630405
20
166.509541
11
178.123095
21
167.294132
0
LINE
8
Layer 1
10
178.123095
20
167.294132
11
178.834025
21
167.947969
0
LINE
8
Layer 1
10
178.834025
20
167.947969
11
179.673879
21
168.364315
0
LINE
8
Layer 1
10
179.673879
20
168.364315
11
180.441185
21
168.505687
0
LINE
8
Layer 1
10
180.441185
20
168.505687
11
181.171864
21
168.472973
0
LINE
8
Layer 1
10
181.171864
20
168.472973
11
181.845671
21
168.280995
0
LINE
8
Layer 1
10
181.845671
20
168.280995
11
182.442363
21
167.944573
0
LINE
8
Layer 1
10
182.442363
20
167.944573
11
182.941696
21
167.478530
0
LINE
8
Layer 1
10
182.941696
20
167.478530
11
183.323426
21
166.897688
0
LINE
8
Layer 1
10
183.323426
20
166.897688
11
183.567309
21
166.216867
0
LINE
8
Layer 1
10
183.567309
20
166.216867
11
183.653103
21
165.450890
0
LINE
8
Layer 1
10
183.653103
20
165.450890
11
183.461548
21
164.363679
0
LINE
8
Layer 1
10
183.461548
20
164.363679
11
182.693547
21
163.372284
0
LINE
8
Layer 1
10
182.693547
20
163.372284
11
181.866609
21
162.737738
0
LINE
8
Layer 1
10
181.866609
20
162.737738
11
180.990354
21
162.436645
0
LINE
8
Layer 1
10
180.990354
20
162.436645
11
180.068332
21
162.469533
0
LINE
8
Layer 1
10
180.068332
20
162.469533
11
179.104098
21
162.836933
0
LINE
8
Layer 1
10
179.104098
20
162.836933
11
179.104098
21
162.836933
0
LINE
8
Layer 1
10
181.783671
20
163.577027
11
182.208328
21
163.854429
0
LINE
8
Layer 1
10
182.208328
20
163.854429
11
182.526192
21
164.233700
0
LINE
8
Layer 1
10
182.526192
20
164.233700
11
182.832893
21
165.190091
0
LINE
8
Layer 1
10
182.832893
20
165.190091
11
182.686476
21
166.230680
0
LINE
8
Layer 1
10
182.686476
20
166.230680
11
182.069641
21
167.139950
0
LINE
8
Layer 1
10
182.069641
20
167.139950
11
181.409346
21
167.562527
0
LINE
8
Layer 1
10
181.409346
20
167.562527
11
180.681445
21
167.740486
0
LINE
8
Layer 1
10
180.681445
20
167.740486
11
179.954050
21
167.668849
0
LINE
8
Layer 1
10
179.954050
20
167.668849
11
179.295273
21
167.342642
0
LINE
8
Layer 1
10
179.295273
20
167.342642
11
178.920003
21
166.985444
0
LINE
8
Layer 1
10
178.920003
20
166.985444
11
179.450495
21
166.928284
0
LINE
8
Layer 1
10
179.450495
20
166.928284
11
180.051616
21
166.836843
0
LINE
8
Layer 1
10
180.051616
20
166.836843
11
180.483298
21
166.563827
0
LINE
8
Layer 1
10
180.483298
20
166.563827
11
180.743674
21
166.111190
0
LINE
8
Layer 1
10
180.743674
20
166.111190
11
180.830880
21
165.480887
0
LINE
8
Layer 1
10
180.830880
20
165.480887
11
180.705268
21
164.792522
0
LINE
8
Layer 1
10
180.705268
20
164.792522
11
180.369963
21
164.269730
0
LINE
8
Layer 1
10
180.369963
20
164.269730
11
179.887266
21
163.974792
0
LINE
8
Layer 1
10
179.887266
20
163.974792
11
179.319476
21
163.969985
0
LINE
8
Layer 1
10
179.319476
20
163.969985
11
178.868092
21
164.054785
0
LINE
8
Layer 1
10
178.868092
20
164.054785
11
179.262044
21
163.697341
0
LINE
8
Layer 1
10
179.262044
20
163.697341
11
179.793106
21
163.398461
0
LINE
8
Layer 1
10
179.793106
20
163.398461
11
180.403154
21
163.278173
0
LINE
8
Layer 1
10
180.403154
20
163.278173
11
181.073053
21
163.337391
0
LINE
8
Layer 1
10
181.073053
20
163.337391
11
181.783671
21
163.577027
0
LINE
8
Layer 1
10
181.783671
20
163.577027
11
181.783671
21
163.577027
0
LINE
8
Layer 1
10
121.594203
20
181.203287
11
121.594203
21
186.461101
0
LINE
8
Layer 1
10
121.594203
20
186.461101
11
122.507891
21
186.461101
0
LINE
8
Layer 1
10
122.507891
20
186.461101
11
123.593682
21
182.738310
0
LINE
8
Layer 1
10
123.593682
20
182.738310
11
123.812721
21
181.960040
0
LINE
8
Layer 1
10
123.812721
20
181.960040
11
124.056786
21
182.802869
0
LINE
8
Layer 1
10
124.056786
20
182.802869
11
125.155094
21
186.461101
0
LINE
8
Layer 1
10
125.155094
20
186.461101
11
125.971783
21
186.461101
0
LINE
8
Layer 1
10
125.971783
20
186.461101
11
125.971783
21
181.203287
0
LINE
8
Layer 1
10
125.971783
20
181.203287
11
125.386643
21
181.203287
0
LINE
8
Layer 1
10
125.386643
20
181.203287
11
125.386643
21
185.603927
0
LINE
8
Layer 1
10
125.386643
20
185.603927
11
124.053656
21
181.203287
0
LINE
8
Layer 1
10
124.053656
20
181.203287
11
123.506069
21
181.203287
0
LINE
8
Layer 1
10
123.506069
20
181.203287
11
122.179340
21
185.679244
0
LINE
8
Layer 1
10
122.179340
20
185.679244
11
122.179340
21
181.203287
0
LINE
8
Layer 1
10
122.179340
20
181.203287
11
121.594203
21
181.203287
0
LINE
8
Layer 1
10
121.594203
20
181.203287
11
121.594203
21
181.203287
0
LINE
8
Layer 1
10
128.249751
20
181.203287
11
128.249751
21
183.430505
0
LINE
8
Layer 1
10
128.249751
20
183.430505
11
126.481820
21
186.461101
0
LINE
8
Layer 1
10
126.481820
20
186.461101
11
127.220283
21
186.461101
0
LINE
8
Layer 1
10
127.220283
20
186.461101
11
128.124588
21
184.875867
0
LINE
8
Layer 1
10
128.124588
20
184.875867
11
128.590822
21
183.986416
0
LINE
8
Layer 1
10
128.590822
20
183.986416
11
129.091473
21
184.915319
0
LINE
8
Layer 1
10
129.091473
20
184.915319
11
129.980131
21
186.461101
0
LINE
8
Layer 1
10
129.980131
20
186.461101
11
130.687301
21
186.461101
0
LINE
8
Layer 1
10
130.687301
20
186.461101
11
128.856791
21
183.430505
0
LINE
8
Layer 1
10
128.856791
20
183.430505
11
128.856791
21
181.203287
0
LINE
8
Layer 1
10
128.856791
20
181.203287
11
128.249751
21
181.203287
0
LINE
8
Layer 1
10
128.249751
20
181.203287
11
128.249751
21
181.203287
0
LINE
8
Layer 1
10
132.990302
20
181.203287
11
132.990302
21
186.461101
0
LINE
8
Layer 1
10
132.990302
20
186.461101
11
134.711296
21
186.461101
0
LINE
8
Layer 1
10
134.711296
20
186.461101
11
135.554582
21
186.301504
0
LINE
8
Layer 1
10
135.554582
20
186.301504
11
136.052106
21
185.810152
0
LINE
8
Layer 1
10
136.052106
20
185.810152
11
136.232025
21
185.116162
0
LINE
8
Layer 1
10
136.232025
20
185.116162
11
136.072443
21
184.481351
0
LINE
8
Layer 1
10
136.072443
20
184.481351
11
135.590565
21
184.000761
0
LINE
8
Layer 1
10
135.590565
20
184.000761
11
136.230462
21
183.523755
0
LINE
8
Layer 1
10
136.230462
20
183.523755
11
136.454190
21
182.727552
0
LINE
8
Layer 1
10
136.454190
20
182.727552
11
136.318077
21
182.040733
0
LINE
8
Layer 1
10
136.318077
20
182.040733
11
135.981700
21
181.551176
0
LINE
8
Layer 1
10
135.981700
20
181.551176
11
135.479485
21
181.291154
0
LINE
8
Layer 1
10
135.479485
20
181.291154
11
134.739456
21
181.203287
0
LINE
8
Layer 1
10
134.739456
20
181.203287
11
132.990302
21
181.203287
0
LINE
8
Layer 1
10
132.990302
20
181.203287
11
132.990302
21
181.203287
0
LINE
8
Layer 1
10
133.597342
20
184.251814
11
134.589263
21
184.251814
0
LINE
8
Layer 1
10
134.589263
20
184.251814
11
135.168140
21
184.312786
0
LINE
8
Layer 1
10
135.168140
20
184.312786
11
135.517032
21
184.574601
0
LINE
8
Layer 1
10
135.517032
20
184.574601
11
135.634372
21
185.033672
0
LINE
8
Layer 1
10
135.634372
20
185.033672
11
135.524855
21
185.494538
0
LINE
8
Layer 1
10
135.524855
20
185.494538
11
135.211947
21
185.767114
0
LINE
8
Layer 1
10
135.211947
20
185.767114
11
134.514164
21
185.840635
0
LINE
8
Layer 1
10
134.514164
20
185.840635
11
133.597342
21
185.840635
0
LINE
8
Layer 1
10
133.597342
20
185.840635
11
133.597342
21
184.251814
0
LINE
8
Layer 1
10
133.597342
20
184.251814
11
133.597342
21
184.251814
0
LINE
8
Layer 1
10
133.597342
20
181.823752
11
134.739456
21
181.823752
0
LINE
8
Layer 1
10
134.739456
20
181.823752
11
135.152497
21
181.848859
0
LINE
8
Layer 1
10
135.152497
20
181.848859
11
135.502952
21
181.992318
0
LINE
8
Layer 1
10
135.502952
20
181.992318
11
135.734504
21
182.284618
0
LINE
8
Layer 1
10
135.734504
20
182.284618
11
135.825247
21
182.727552
0
LINE
8
Layer 1
10
135.825247
20
182.727552
11
135.693827
21
183.238628
0
LINE
8
Layer 1
10
135.693827
20
183.238628
11
135.329287
21
183.543482
0
LINE
8
Layer 1
10
135.329287
20
183.543482
11
134.658103
21
183.631349
0
LINE
8
Layer 1
10
134.658103
20
183.631349
11
133.597342
21
183.631349
0
LINE
8
Layer 1
10
133.597342
20
183.631349
11
133.597342
21
181.823752
0
LINE
8
Layer 1
10
133.597342
20
181.823752
11
133.597342
21
181.823752
0
LINE
8
Layer 1
10
140.306084
20
186.461101
11
140.913127
21
186.461101
0
LINE
8
Layer 1
10
140.913127
20
186.461101
11
140.913127
21
183.423334
0
LINE
8
Layer 1
10
140.913127
20
183.423334
11
140.756674
21
182.164471
0
LINE
8
Layer 1
10
140.756674
20
182.164471
11
140.537244
21
181.741710
0
LINE
8
Layer 1
10
140.537244
20
181.741710
11
140.191877
21
181.405922
0
LINE
8
Layer 1
10
140.191877
20
181.405922
11
139.719773
21
181.186699
0
LINE
8
Layer 1
10
139.719773
20
181.186699
11
139.120163
21
181.113625
0
LINE
8
Layer 1
10
139.120163
20
181.113625
11
138.534244
21
181.177285
0
LINE
8
Layer 1
10
138.534244
20
181.177285
11
138.065665
21
181.368265
0
LINE
8
Layer 1
10
138.065665
20
181.368265
11
137.714426
21
181.679842
0
LINE
8
Layer 1
10
137.714426
20
181.679842
11
137.480531
21
182.105292
0
LINE
8
Layer 1
10
137.480531
20
182.105292
11
137.305299
21
183.423334
0
LINE
8
Layer 1
10
137.305299
20
183.423334
11
137.305299
21
186.461101
0
LINE
8
Layer 1
10
137.305299
20
186.461101
11
137.912340
21
186.461101
0
LINE
8
Layer 1
10
137.912340
20
186.461101
11
137.912340
21
183.426918
0
LINE
8
Layer 1
10
137.912340
20
183.426918
11
138.023425
21
182.417319
0
LINE
8
Layer 1
10
138.023425
20
182.417319
11
138.405173
21
181.917001
0
LINE
8
Layer 1
10
138.405173
20
181.917001
11
139.066970
21
181.741262
0
LINE
8
Layer 1
10
139.066970
20
181.741262
11
139.640373
21
181.828234
0
LINE
8
Layer 1
10
139.640373
20
181.828234
11
140.021341
21
182.089154
0
LINE
8
Layer 1
10
140.021341
20
182.089154
11
140.234897
21
182.597538
0
LINE
8
Layer 1
10
140.234897
20
182.597538
11
140.306084
21
183.426918
0
LINE
8
Layer 1
10
140.306084
20
183.426918
11
140.306084
21
186.461101
0
LINE
8
Layer 1
10
140.306084
20
186.461101
11
140.306084
21
186.461101
0
LINE
8
Layer 1
10
143.094095
20
181.203287
11
143.094095
21
185.840635
0
LINE
8
Layer 1
10
143.094095
20
185.840635
11
141.582747
21
185.840635
0
LINE
8
Layer 1
10
141.582747
20
185.840635
11
141.582747
21
186.461101
0
LINE
8
Layer 1
10
141.582747
20
186.461101
11
145.218734
21
186.461101
0
LINE
8
Layer 1
10
145.218734
20
186.461101
11
145.218734
21
185.840635
0
LINE
8
Layer 1
10
145.218734
20
185.840635
11
143.701135
21
185.840635
0
LINE
8
Layer 1
10
143.701135
20
185.840635
11
143.701135
21
181.203287
0
LINE
8
Layer 1
10
143.701135
20
181.203287
11
143.094095
21
181.203287
0
LINE
8
Layer 1
10
143.094095
20
181.203287
11
143.094095
21
181.203287
0
LINE
8
Layer 1
10
147.011698
20
181.203287
11
147.011698
21
185.840635
0
LINE
8
Layer 1
10
147.011698
20
185.840635
11
145.500352
21
185.840635
0
LINE
8
Layer 1
10
145.500352
20
185.840635
11
145.500352
21
186.461101
0
LINE
8
Layer 1
10
145.500352
20
186.461101
11
149.136343
21
186.461101
0
LINE
8
Layer 1
10
149.136343
20
186.461101
11
149.136343
21
185.840635
0
LINE
8
Layer 1
10
149.136343
20
185.840635
11
147.618738
21
185.840635
0
LINE
8
Layer 1
10
147.618738
20
185.840635
11
147.618738
21
181.203287
0
LINE
8
Layer 1
10
147.618738
20
181.203287
11
147.011698
21
181.203287
0
LINE
8
Layer 1
10
147.011698
20
181.203287
11
147.011698
21
181.203287
0
LINE
8
Layer 1
10
151.558247
20
181.203287
11
151.558247
21
186.461101
0
LINE
8
Layer 1
10
151.558247
20
186.461101
11
152.165287
21
186.461101
0
LINE
8
Layer 1
10
152.165287
20
186.461101
11
152.165287
21
184.302025
0
LINE
8
Layer 1
10
152.165287
20
184.302025
11
154.549644
21
184.302025
0
LINE
8
Layer 1
10
154.549644
20
184.302025
11
154.549644
21
186.461101
0
LINE
8
Layer 1
10
154.549644
20
186.461101
11
155.156687
21
186.461101
0
LINE
8
Layer 1
10
155.156687
20
186.461101
11
155.156687
21
181.203287
0
LINE
8
Layer 1
10
155.156687
20
181.203287
11
154.549644
21
181.203287
0
LINE
8
Layer 1
10
154.549644
20
181.203287
11
154.549644
21
183.681559
0
LINE
8
Layer 1
10
154.549644
20
183.681559
11
152.165287
21
183.681559
0
LINE
8
Layer 1
10
152.165287
20
183.681559
11
152.165287
21
181.203287
0
LINE
8
Layer 1
10
152.165287
20
181.203287
11
151.558247
21
181.203287
0
LINE
8
Layer 1
10
151.558247
20
181.203287
11
151.558247
21
181.203287
0
LINE
8
Layer 1
10
159.180682
20
186.461101
11
159.787723
21
186.461101
0
LINE
8
Layer 1
10
159.787723
20
186.461101
11
159.787723
21
183.423334
0
LINE
8
Layer 1
10
159.787723
20
183.423334
11
159.631267
21
182.164471
0
LINE
8
Layer 1
10
159.631267
20
182.164471
11
159.411839
21
181.741710
0
LINE
8
Layer 1
10
159.411839
20
181.741710
11
159.066470
21
181.405922
0
LINE
8
Layer 1
10
159.066470
20
181.405922
11
158.594368
21
181.186699
0
LINE
8
Layer 1
10
158.594368
20
181.186699
11
157.994762
21
181.113625
0
LINE
8
Layer 1
10
157.994762
20
181.113625
11
157.408839
21
181.177285
0
LINE
8
Layer 1
10
157.408839
20
181.177285
11
156.940264
21
181.368265
0
LINE
8
Layer 1
10
156.940264
20
181.368265
11
156.589022
21
181.679842
0
LINE
8
Layer 1
10
156.589022
20
181.679842
11
156.355124
21
182.105292
0
LINE
8
Layer 1
10
156.355124
20
182.105292
11
156.179895
21
183.423334
0
LINE
8
Layer 1
10
156.179895
20
183.423334
11
156.179895
21
186.461101
0
LINE
8
Layer 1
10
156.179895
20
186.461101
11
156.786936
21
186.461101
0
LINE
8
Layer 1
10
156.786936
20
186.461101
11
156.786936
21
183.426918
0
LINE
8
Layer 1
10
156.786936
20
183.426918
11
156.898018
21
182.417319
0
LINE
8
Layer 1
10
156.898018
20
182.417319
11
157.279766
21
181.917001
0
LINE
8
Layer 1
10
157.279766
20
181.917001
11
157.941566
21
181.741262
0
LINE
8
Layer 1
10
157.941566
20
181.741262
11
158.514966
21
181.828234
0
LINE
8
Layer 1
10
158.514966
20
181.828234
11
158.895934
21
182.089154
0
LINE
8
Layer 1
10
158.895934
20
182.089154
11
159.109492
21
182.597538
0
LINE
8
Layer 1
10
159.109492
20
182.597538
11
159.180682
21
183.426918
0
LINE
8
Layer 1
10
159.180682
20
183.426918
11
159.180682
21
186.461101
0
LINE
8
Layer 1
10
159.180682
20
186.461101
11
159.180682
21
186.461101
0
LINE
8
Layer 1
10
160.810931
20
181.203287
11
160.810931
21
186.461101
0
LINE
8
Layer 1
10
160.810931
20
186.461101
11
162.844830
21
186.461101
0
LINE
8
Layer 1
10
162.844830
20
186.461101
11
163.777295
21
186.319437
0
LINE
8
Layer 1
10
163.777295
20
186.319437
11
164.287335
21
185.819116
0
LINE
8
Layer 1
10
164.287335
20
185.819116
11
164.478208
21
185.026500
0
LINE
8
Layer 1
10
164.478208
20
185.026500
11
164.399196
21
184.510938
0
LINE
8
Layer 1
10
164.399196
20
184.510938
11
164.162170
21
184.083249
0
LINE
8
Layer 1
10
164.162170
20
184.083249
11
163.760083
21
183.769428
0
LINE
8
Layer 1
10
163.760083
20
183.769428
11
163.185901
21
183.595484
0
LINE
8
Layer 1
10
163.185901
20
183.595484
11
163.552000
21
183.333669
0
LINE
8
Layer 1
10
163.552000
20
183.333669
11
164.055783
21
182.634303
0
LINE
8
Layer 1
10
164.055783
20
182.634303
11
164.853699
21
181.203287
0
LINE
8
Layer 1
10
164.853699
20
181.203287
11
164.090200
21
181.203287
0
LINE
8
Layer 1
10
164.090200
20
181.203287
11
163.483160
21
182.297169
0
LINE
8
Layer 1
10
163.483160
20
182.297169
11
163.045092
21
183.021645
0
LINE
8
Layer 1
10
163.045092
20
183.021645
11
162.736874
21
183.373121
0
LINE
8
Layer 1
10
162.736874
20
183.373121
11
162.459955
21
183.512996
0
LINE
8
Layer 1
10
162.459955
20
183.512996
11
162.122014
21
183.538100
0
LINE
8
Layer 1
10
162.122014
20
183.538100
11
161.417971
21
183.538100
0
LINE
8
Layer 1
10
161.417971
20
183.538100
11
161.417971
21
181.203287
0
LINE
8
Layer 1
10
161.417971
20
181.203287
11
160.810931
21
181.203287
0
LINE
8
Layer 1
10
160.810931
20
181.203287
11
160.810931
21
181.203287
0
LINE
8
Layer 1
10
161.417971
20
184.140633
11
162.722797
21
184.140633
0
LINE
8
Layer 1
10
162.722797
20
184.140633
11
163.373644
21
184.239264
0
LINE
8
Layer 1
10
163.373644
20
184.239264
11
163.730359
21
184.554876
0
LINE
8
Layer 1
10
163.730359
20
184.554876
11
163.852394
21
185.026500
0
LINE
8
Layer 1
10
163.852394
20
185.026500
11
163.616146
21
185.639792
0
LINE
8
Layer 1
10
163.616146
20
185.639792
11
163.311450
21
185.820011
0
LINE
8
Layer 1
10
163.311450
20
185.820011
11
162.869863
21
185.880090
0
LINE
8
Layer 1
10
162.869863
20
185.880090
11
161.417971
21
185.880090
0
LINE
8
Layer 1
10
161.417971
20
185.880090
11
161.417971
21
184.140633
0
LINE
8
Layer 1
10
161.417971
20
184.140633
11
161.417971
21
184.140633
0
LINE
8
Layer 1
10
166.599723
20
181.203287
11
166.599723
21
185.840635
0
LINE
8
Layer 1
10
166.599723
20
185.840635
11
165.088381
21
185.840635
0
LINE
8
Layer 1
10
165.088381
20
185.840635
11
165.088381
21
186.461101
0
LINE
8
Layer 1
10
165.088381
20
186.461101
11
168.724368
21
186.461101
0
LINE
8
Layer 1
10
168.724368
20
186.461101
11
168.724368
21
185.840635
0
LINE
8
Layer 1
10
168.724368
20
185.840635
11
167.206766
21
185.840635
0
LINE
8
Layer 1
10
167.206766
20
185.840635
11
167.206766
21
181.203287
0
LINE
8
Layer 1
10
167.206766
20
181.203287
11
166.599723
21
181.203287
0
LINE
8
Layer 1
10
166.599723
20
181.203287
11
166.599723
21
181.203287
0
LINE
8
Layer 1
10
169.143663
20
182.892531
11
169.716283
21
182.949912
0
LINE
8
Layer 1
10
169.716283
20
182.949912
11
169.905595
21
182.302551
0
LINE
8
Layer 1
10
169.905595
20
182.302551
11
170.367133
21
181.893687
0
LINE
8
Layer 1
10
170.367133
20
181.893687
11
171.071173
21
181.737675
0
LINE
8
Layer 1
10
171.071173
20
181.737675
11
171.684473
21
181.856030
0
LINE
8
Layer 1
10
171.684473
20
181.856030
11
172.080301
21
182.180611
0
LINE
8
Layer 1
10
172.080301
20
182.180611
11
172.210157
21
182.630716
0
LINE
8
Layer 1
10
172.210157
20
182.630716
11
172.084997
21
183.062888
0
LINE
8
Layer 1
10
172.084997
20
183.062888
11
171.671956
21
183.373121
0
LINE
8
Layer 1
10
171.671956
20
183.373121
11
170.855267
21
183.629557
0
LINE
8
Layer 1
10
170.855267
20
183.629557
11
169.969739
21
183.957722
0
LINE
8
Layer 1
10
169.969739
20
183.957722
11
169.480038
21
184.447279
0
LINE
8
Layer 1
10
169.480038
20
184.447279
11
169.318892
21
185.101817
0
LINE
8
Layer 1
10
169.318892
20
185.101817
11
169.516024
21
185.846017
0
LINE
8
Layer 1
10
169.516024
20
185.846017
11
170.091775
21
186.371439
0
LINE
8
Layer 1
10
170.091775
20
186.371439
11
170.933497
21
186.550766
0
LINE
8
Layer 1
10
170.933497
20
186.550766
11
171.833105
21
186.362473
0
LINE
8
Layer 1
10
171.833105
20
186.362473
11
172.432322
21
185.808358
0
LINE
8
Layer 1
10
172.432322
20
185.808358
11
172.657618
21
184.979874
0
LINE
8
Layer 1
10
172.657618
20
184.979874
11
172.075608
21
184.929664
0
LINE
8
Layer 1
10
172.075608
20
184.929664
11
171.972738
21
185.367216
0
LINE
8
Layer 1
10
171.972738
20
185.367216
11
171.758009
21
185.682831
0
LINE
8
Layer 1
10
171.758009
20
185.682831
11
171.422803
21
185.873809
0
LINE
8
Layer 1
10
171.422803
20
185.873809
11
170.958527
21
185.937474
0
LINE
8
Layer 1
10
170.958527
20
185.937474
11
170.482516
21
185.879637
0
LINE
8
Layer 1
10
170.482516
20
185.879637
11
170.155918
21
185.706142
0
LINE
8
Layer 1
10
170.155918
20
185.706142
11
169.904029
21
185.148440
0
LINE
8
Layer 1
10
169.904029
20
185.148440
11
170.082388
21
184.682198
0
LINE
8
Layer 1
10
170.082388
20
184.682198
11
170.997643
21
184.307407
0
LINE
8
Layer 1
10
170.997643
20
184.307407
11
172.013028
21
183.972067
0
LINE
8
Layer 1
10
172.013028
20
183.972067
11
172.604424
21
183.435885
0
LINE
8
Layer 1
10
172.604424
20
183.435885
11
172.795297
21
182.688100
0
LINE
8
Layer 1
10
172.795297
20
182.688100
11
172.585648
21
181.897274
0
LINE
8
Layer 1
10
172.585648
20
181.897274
11
171.983301
21
181.319847
0
LINE
8
Layer 1
10
171.983301
20
181.319847
11
171.099336
21
181.113625
0
LINE
8
Layer 1
10
171.099336
20
181.113625
11
170.055788
21
181.321642
0
LINE
8
Layer 1
10
170.055788
20
181.321642
11
169.395555
21
181.947484
0
LINE
8
Layer 1
10
169.395555
20
181.947484
11
169.143663
21
182.892531
0
LINE
8
Layer 1
10
169.143663
20
182.892531
11
169.143663
21
182.892531
0
LINE
8
Layer 1
10
169.143663
20
182.892531
11
169.143663
21
182.892531
0
LINE
8
Layer 1
10
149.573121
20
143.815915
11
148.369742
21
149.532924
0
LINE
8
Layer 1
10
148.369742
20
149.532924
11
148.985354
21
149.532924
0
LINE
8
Layer 1
10
148.985354
20
149.532924
11
149.675207
21
145.785281
0
LINE
8
Layer 1
10
149.675207
20
145.785281
11
149.867008
21
144.615360
0
LINE
8
Layer 1
10
149.867008
20
144.615360
11
150.071178
21
145.672186
0
LINE
8
Layer 1
10
150.071178
20
145.672186
11
150.934273
21
149.532924
0
LINE
8
Layer 1
10
150.934273
20
149.532924
11
151.658159
21
149.532924
0
LINE
8
Layer 1
10
151.658159
20
149.532924
11
152.307798
21
146.639322
0
LINE
8
Layer 1
10
152.307798
20
146.639322
11
152.660460
21
144.615360
0
LINE
8
Layer 1
10
152.660460
20
144.615360
11
152.886289
21
145.859376
0
LINE
8
Layer 1
10
152.886289
20
145.859376
11
153.597796
21
149.532924
0
LINE
8
Layer 1
10
153.597796
20
149.532924
11
154.201035
21
149.532924
0
LINE
8
Layer 1
10
154.201035
20
149.532924
11
152.957440
21
143.815915
0
LINE
8
Layer 1
10
152.957440
20
143.815915
11
152.378952
21
143.815915
0
LINE
8
Layer 1
10
152.378952
20
143.815915
11
151.423048
21
148.171919
0
LINE
8
Layer 1
10
151.423048
20
148.171919
11
151.280749
21
148.842674
0
LINE
8
Layer 1
10
151.280749
20
148.842674
11
151.147726
21
148.171919
0
LINE
8
Layer 1
10
151.147726
20
148.171919
11
150.185639
21
143.815915
0
LINE
8
Layer 1
10
150.185639
20
143.815915
11
149.573121
21
143.815915
0
LINE
8
Layer 1
10
149.573121
20
143.815915
11
149.573121
21
143.815915
0
LINE
8
Layer 1
10
154.776432
20
143.815915
11
154.776432
21
149.532924
0
LINE
8
Layer 1
10
154.776432
20
149.532924
11
155.376575
21
149.532924
0
LINE
8
Layer 1
10
155.376575
20
149.532924
11
155.376575
21
147.185284
0
LINE
8
Layer 1
10
155.376575
20
147.185284
11
157.733842
21
147.185284
0
LINE
8
Layer 1
10
157.733842
20
147.185284
11
157.733842
21
149.532924
0
LINE
8
Layer 1
10
157.733842
20
149.532924
11
158.333985
21
149.532924
0
LINE
8
Layer 1
10
158.333985
20
149.532924
11
158.333985
21
143.815915
0
LINE
8
Layer 1
10
158.333985
20
143.815915
11
157.733842
21
143.815915
0
LINE
8
Layer 1
10
157.733842
20
143.815915
11
157.733842
21
146.510629
0
LINE
8
Layer 1
10
157.733842
20
146.510629
11
155.376575
21
146.510629
0
LINE
8
Layer 1
10
155.376575
20
146.510629
11
155.376575
21
143.815915
0
LINE
8
Layer 1
10
155.376575
20
143.815915
11
154.776432
21
143.815915
0
LINE
8
Layer 1
10
154.776432
20
143.815915
11
154.776432
21
143.815915
0
LINE
8
Layer 1
10
158.838231
20
143.815915
11
160.579884
21
149.532924
0
LINE
8
Layer 1
10
160.579884
20
149.532924
11
161.226432
21
149.532924
0
LINE
8
Layer 1
10
161.226432
20
149.532924
11
163.082549
21
143.815915
0
LINE
8
Layer 1
10
163.082549
20
143.815915
11
162.398879
21
143.815915
0
LINE
8
Layer 1
10
162.398879
20
143.815915
11
161.869885
21
145.547396
0
LINE
8
Layer 1
10
161.869885
20
145.547396
11
159.973555
21
145.547396
0
LINE
8
Layer 1
10
159.973555
20
145.547396
11
159.475495
21
143.815915
0
LINE
8
Layer 1
10
159.475495
20
143.815915
11
158.838231
21
143.815915
0
LINE
8
Layer 1
10
158.838231
20
143.815915
11
158.838231
21
143.815915
0
LINE
8
Layer 1
10
160.146791
20
146.163555
11
161.684273
21
146.163555
0
LINE
8
Layer 1
10
161.684273
20
146.163555
11
161.210964
21
147.746847
0
LINE
8
Layer 1
10
161.210964
20
147.746847
11
160.889239
21
148.932367
0
LINE
8
Layer 1
10
160.889239
20
148.932367
11
160.644848
21
147.840440
0
LINE
8
Layer 1
10
160.644848
20
147.840440
11
160.146791
21
146.163555
0
LINE
8
Layer 1
10
160.146791
20
146.163555
11
160.146791
21
146.163555
0
LINE
8
Layer 1
10
164.722116
20
143.815915
11
164.722116
21
148.858269
0
LINE
8
Layer 1
10
164.722116
20
148.858269
11
163.227944
21
148.858269
0
LINE
8
Layer 1
10
163.227944
20
148.858269
11
163.227944
21
149.532924
0
LINE
8
Layer 1
10
163.227944
20
149.532924
11
166.822620
21
149.532924
0
LINE
8
Layer 1
10
166.822620
20
149.532924
11
166.822620
21
148.858269
0
LINE
8
Layer 1
10
166.822620
20
148.858269
11
165.322261
21
148.858269
0
LINE
8
Layer 1
10
165.322261
20
148.858269
11
165.322261
21
143.815915
0
LINE
8
Layer 1
10
165.322261
20
143.815915
11
164.722116
21
143.815915
0
LINE
8
Layer 1
10
164.722116
20
143.815915
11
164.722116
21
143.815915
0
LINE
8
Layer 1
10
168.412693
20
145.223715
11
168.409597
21
145.434301
0
LINE
8
Layer 1
10
168.409597
20
145.434301
11
168.502403
21
146.147954
0
LINE
8
Layer 1
10
168.502403
20
146.147954
11
168.722043
21
146.604222
0
LINE
8
Layer 1
10
168.722043
20
146.604222
11
169.122654
21
147.093638
0
LINE
8
Layer 1
10
169.122654
20
147.093638
11
169.498521
21
147.606456
0
LINE
8
Layer 1
10
169.498521
20
147.606456
11
169.585138
21
148.023727
0
LINE
8
Layer 1
10
169.585138
20
148.023727
11
169.331471
21
148.743230
0
LINE
8
Layer 1
10
169.331471
20
148.743230
11
169.049184
21
148.975747
0
LINE
8
Layer 1
10
169.049184
20
148.975747
11
168.709673
21
149.053259
0
LINE
8
Layer 1
10
168.709673
20
149.053259
11
168.383303
21
148.983059
0
LINE
8
Layer 1
10
168.383303
20
148.983059
11
168.115714
21
148.772476
0
LINE
8
Layer 1
10
168.115714
20
148.772476
11
167.803268
21
147.895036
0
LINE
8
Layer 1
10
167.803268
20
147.895036
11
167.230967
21
147.980829
0
LINE
8
Layer 1
10
167.230967
20
147.980829
11
167.384482
21
148.686678
0
LINE
8
Layer 1
10
167.384482
20
148.686678
11
167.690354
21
149.205346
0
LINE
8
Layer 1
10
167.690354
20
149.205346
11
168.133886
21
149.524146
0
LINE
8
Layer 1
10
168.133886
20
149.524146
11
168.700388
21
149.630421
0
LINE
8
Layer 1
10
168.700388
20
149.630421
11
169.298212
21
149.516347
0
LINE
8
Layer 1
10
169.298212
20
149.516347
11
169.761467
21
149.174149
0
LINE
8
Layer 1
10
169.761467
20
149.174149
11
170.058444
21
148.670105
0
LINE
8
Layer 1
10
170.058444
20
148.670105
11
170.157439
21
148.070525
0
LINE
8
Layer 1
10
170.157439
20
148.070525
11
170.018233
21
147.380271
0
LINE
8
Layer 1
10
170.018233
20
147.380271
11
169.473773
21
146.612026
0
LINE
8
Layer 1
10
169.473773
20
146.612026
11
169.118015
21
146.163555
0
LINE
8
Layer 1
10
169.118015
20
146.163555
11
168.994274
21
145.832076
0
LINE
8
Layer 1
10
168.994274
20
145.832076
11
168.947874
21
145.223715
0
LINE
8
Layer 1
10
168.947874
20
145.223715
11
168.412693
21
145.223715
0
LINE
8
Layer 1
10
168.412693
20
145.223715
11
168.412693
21
145.223715
0
LINE
8
Layer 1
10
168.378663
20
143.815915
11
168.378663
21
144.615360
0
LINE
8
Layer 1
10
168.378663
20
144.615360
11
169.012836
21
144.615360
0
LINE
8
Layer 1
10
169.012836
20
144.615360
11
169.012836
21
143.815915
0
LINE
8
Layer 1
10
169.012836
20
143.815915
11
168.378663
21
143.815915
0
LINE
8
Layer 1
10
168.378663
20
143.815915
11
168.378663
21
143.815915
0
LINE
8
Layer 1
10
134.973658
20
170.319082
11
145.456597
21
178.540167
0
LINE
8
Layer 1
10
145.456597
20
178.540167
11
145.863496
21
178.102568
0
LINE
8
Layer 1
10
145.863496
20
178.102568
11
135.380558
21
169.881482
0
LINE
8
Layer 1
10
135.380558
20
169.881482
11
134.973658
21
170.319082
0
LINE
8
Layer 1
10
134.973658
20
170.319082
11
134.973658
21
170.319082
0
LINE
8
Layer 1
10
158.499635
20
152.459952
11
168.982576
21
160.681038
0
LINE
8
Layer 1
10
168.982576
20
160.681038
11
169.389476
21
160.243435
0
LINE
8
Layer 1
10
169.389476
20
160.243435
11
158.906535
21
152.022350
0
LINE
8
Layer 1
10
158.906535
20
152.022350
11
158.499635
21
152.459952
0
LINE
8
Layer 1
10
158.499635
20
152.459952
11
158.499635
21
152.459952
 0 
ENDSEC
 0 
EOF
