0
SECTION
2
HEADER
9
$ACADVER
1
AC1003
9
$INSBASE
10
0.0
20
0.0
30
0.0
9
$EXTMIN
10
0.000
20
0.000
30
0.0
9
$EXTMAX
10
784.000
20
789.000
30
0.0
9
$LIMMIN
10
0.000
20
0.000
9
$LIMMAX
10
784.000
20
789.000
9
$LTSCALE
40
1.0
9
$LUNITS
70
2
9
$LUPREC
70
3
9
$LIMCHECK
70
0
9
$UCSNAME
2

9
$UCSORG
10
0.0
20
0.0
30
0.0
9
$UCSXDIR
10
1.0
20
0.0
30
0.0
9
$UCSYDIR
10
0.0
20
1.0
30
0.0
9
$WORLDVIEW
70
1
9
$UNITMODE
70
0
0
ENDSEC
0
SECTION
2
TABLES
0
TABLE
2
VPORT
70
1
0
VPORT
2
*ACTIVE
70
0
10
0.0
20
0.0
11
1.0
21
1.0
12
392.000
22
394.500
13
0.0
23
0.0
14
1.0
24
1.0
15
0.0
25
0.0
16
0.0
26
0.0
36
1.0
17
0.0
27
0.0
37
0.0
40
500.0
41
1.006
42
50.0
43
0.0
44
0.0
50
0.0
51
0.0
71
0
72
100
73
1
74
1
75
0
76
0
77
0
78
0
0
ENDTAB
0
TABLE
2
LTYPE
70
1
0
LTYPE
2
CONTINUOUS
70
64
3
Solid line
72
65
73
0
40
0.000
0
ENDTAB
0
TABLE
2
LAYER
70
1
0
LAYER
2
0
70
64
62
7
6
CONTINUOUS
0
ENDTAB
0
ENDSEC
0
SECTION
2
BLOCKS
0
ENDSEC
0
SECTION
2
ENTITIES
0
POLYLINE
8
0
6
CONTINUOUS
66
1
62
7
10
0.0
20
0.0
30
0.000000
0
VERTEX
8
0
10
398.000000
20
723.000000
0
VERTEX
8
0
10
402.100000
20
724.800000
0
VERTEX
8
0
10
408.000000
20
730.000000
0
VERTEX
8
0
10
409.352941
20
735.911765
0
VERTEX
8
0
10
408.000000
20
744.000000
0
VERTEX
8
0
10
400.000000
20
750.000000
0
VERTEX
8
0
10
391.000000
20
750.000000
0
VERTEX
8
0
10
385.000000
20
745.000000
0
VERTEX
8
0
10
383.517241
20
741.793103
0
VERTEX
8
0
10
382.000000
20
736.000000
0
VERTEX
8
0
10
386.000000
20
727.000000
0
VERTEX
8
0
10
387.000000
20
726.000000
0
VERTEX
8
0
10
394.076923
20
723.384615
0
VERTEX
8
0
10
398.000000
20
723.000000
0
SEQEND
0
POLYLINE
8
0
6
CONTINUOUS
66
1
62
7
10
0.0
20
0.0
30
0.000000
0
VERTEX
8
0
10
466.000000
20
508.000000
0
VERTEX
8
0
10
467.000000
20
510.000000
0
VERTEX
8
0
10
476.779310
20
519.248276
0
VERTEX
8
0
10
485.220690
20
526.751724
0
VERTEX
8
0
10
493.100000
20
531.800000
0
VERTEX
8
0
10
499.153846
20
535.769231
0
VERTEX
8
0
10
515.100000
20
541.700000
0
VERTEX
8
0
10
516.900000
20
542.300000
0
VERTEX
8
0
10
544.060000
20
548.580000
0
VERTEX
8
0
10
549.940000
20
549.420000
0
VERTEX
8
0
10
551.000000
20
550.000000
0
VERTEX
8
0
10
593.000000
20
550.000000
0
VERTEX
8
0
10
636.000000
20
547.000000
0
VERTEX
8
0
10
658.000000
20
547.000000
0
VERTEX
8
0
10
659.000000
20
548.000000
0
VERTEX
8
0
10
657.760000
20
549.820000
0
VERTEX
8
0
10
645.243902
20
566.195122
0
VERTEX
8
0
10
636.000000
20
579.000000
0
VERTEX
8
0
10
600.000000
20
615.000000
0
VERTEX
8
0
10
567.820000
20
638.760000
0
VERTEX
8
0
10
567.153846
20
639.230769
0
VERTEX
8
0
10
523.900000
20
661.700000
0
VERTEX
8
0
10
517.100000
20
664.300000
0
VERTEX
8
0
10
479.923077
20
677.615385
0
VERTEX
8
0
10
466.076923
20
680.384615
0
VERTEX
8
0
10
440.955446
20
685.554455
0
VERTEX
8
0
10
403.000000
20
689.000000
0
VERTEX
8
0
10
387.969027
20
688.464602
0
VERTEX
8
0
10
350.044554
20
685.554455
0
VERTEX
8
0
10
323.076923
20
679.615385
0
VERTEX
8
0
10
319.088235
20
678.647059
0
VERTEX
8
0
10
301.900000
20
674.200000
0
VERTEX
8
0
10
299.900000
20
673.300000
0
VERTEX
8
0
10
261.100000
20
658.800000
0
VERTEX
8
0
10
243.900000
20
649.200000
0
VERTEX
8
0
10
219.820000
20
635.240000
0
VERTEX
8
0
10
191.820000
20
614.240000
0
VERTEX
8
0
10
187.000000
20
611.000000
0
VERTEX
8
0
10
153.248619
20
574.776243
0
VERTEX
8
0
10
134.240000
20
548.820000
0
VERTEX
8
0
10
129.000000
20
541.000000
0
VERTEX
8
0
10
130.000000
20
540.000000
0
VERTEX
8
0
10
198.992961
20
539.507243
0
VERTEX
8
0
10
217.932432
20
536.594595
0
VERTEX
8
0
10
240.900000
20
530.800000
0
VERTEX
8
0
10
248.900000
20
527.700000
0
VERTEX
8
0
10
259.846154
20
521.769231
0
VERTEX
8
0
10
269.100000
20
516.200000
0
VERTEX
8
0
10
272.100000
20
515.800000
0
VERTEX
8
0
10
272.900000
20
516.200000
0
VERTEX
8
0
10
284.804878
20
525.243902
0
VERTEX
8
0
10
289.195122
20
528.756098
0
VERTEX
8
0
10
302.100000
20
536.800000
0
VERTEX
8
0
10
305.153846
20
538.769231
0
VERTEX
8
0
10
321.100000
20
545.700000
0
VERTEX
8
0
10
324.100000
20
546.800000
0
VERTEX
8
0
10
343.044554
20
551.554455
0
VERTEX
8
0
10
351.955446
20
552.445545
0
VERTEX
8
0
10
365.000000
20
553.000000
0
VERTEX
8
0
10
384.900000
20
548.700000
0
VERTEX
8
0
10
390.100000
20
547.300000
0
VERTEX
8
0
10
408.000000
20
539.000000
0
VERTEX
8
0
10
433.000000
20
513.000000
0
VERTEX
8
0
10
460.088235
20
509.352941
0
VERTEX
8
0
10
466.000000
20
508.000000
0
SEQEND
0
POLYLINE
8
0
6
CONTINUOUS
66
1
62
7
10
0.0
20
0.0
30
0.000000
0
VERTEX
8
0
10
366.000000
20
504.000000
0
VERTEX
8
0
10
369.000000
20
505.000000
0
SEQEND
0
POLYLINE
8
0
6
CONTINUOUS
66
1
62
7
10
0.0
20
0.0
30
0.000000
0
VERTEX
8
0
10
366.000000
20
504.000000
0
VERTEX
8
0
10
365.000000
20
505.000000
0
VERTEX
8
0
10
354.000000
20
505.000000
0
VERTEX
8
0
10
341.088235
20
502.647059
0
VERTEX
8
0
10
337.088235
20
501.647059
0
VERTEX
8
0
10
325.180000
20
495.760000
0
VERTEX
8
0
10
315.795082
20
488.245902
0
VERTEX
8
0
10
307.000000
20
480.000000
0
VERTEX
8
0
10
316.000000
20
471.000000
0
VERTEX
8
0
10
317.000000
20
471.000000
0
VERTEX
8
0
10
324.795082
20
476.245902
0
VERTEX
8
0
10
330.204918
20
480.754098
0
VERTEX
8
0
10
366.000000
20
504.000000
0
SEQEND
0
POLYLINE
8
0
6
CONTINUOUS
66
1
62
7
10
0.0
20
0.0
30
0.000000
0
VERTEX
8
0
10
390.000000
20
458.000000
0
VERTEX
8
0
10
389.000000
20
459.000000
0
SEQEND
0
POLYLINE
8
0
6
CONTINUOUS
66
1
62
7
10
0.0
20
0.0
30
0.000000
0
VERTEX
8
0
10
390.000000
20
458.000000
0
VERTEX
8
0
10
391.000000
20
459.000000
0
VERTEX
8
0
10
390.000000
20
460.000000
0
VERTEX
8
0
10
389.000000
20
459.000000
0
SEQEND
0
POLYLINE
8
0
6
CONTINUOUS
66
1
62
7
10
0.0
20
0.0
30
0.000000
0
VERTEX
8
0
10
444.000000
20
458.000000
0
VERTEX
8
0
10
444.000000
20
462.000000
0
SEQEND
0
POLYLINE
8
0
6
CONTINUOUS
66
1
62
7
10
0.0
20
0.0
30
0.000000
0
VERTEX
8
0
10
555.000000
20
447.000000
0
VERTEX
8
0
10
562.795082
20
452.245902
0
VERTEX
8
0
10
573.000000
20
461.000000
0
VERTEX
8
0
10
581.200000
20
472.900000
0
VERTEX
8
0
10
582.000000
20
474.000000
0
VERTEX
8
0
10
582.000000
20
481.000000
0
VERTEX
8
0
10
578.800000
20
486.900000
0
VERTEX
8
0
10
576.000000
20
491.000000
0
VERTEX
8
0
10
565.100000
20
498.200000
0
VERTEX
8
0
10
556.000000
20
501.000000
0
VERTEX
8
0
10
548.000000
20
501.000000
0
VERTEX
8
0
10
540.053846
20
499.569231
0
VERTEX
8
0
10
531.900000
20
497.200000
0
VERTEX
8
0
10
527.900000
20
495.200000
0
VERTEX
8
0
10
517.000000
20
489.000000
0
VERTEX
8
0
10
515.000000
20
487.000000
0
VERTEX
8
0
10
532.216814
20
471.247788
0
VERTEX
8
0
10
546.000000
20
458.000000
0
VERTEX
8
0
10
548.760000
20
453.820000
0
VERTEX
8
0
10
549.240000
20
453.180000
0
VERTEX
8
0
10
554.000000
20
447.000000
0
VERTEX
8
0
10
555.000000
20
447.000000
0
SEQEND
0
POLYLINE
8
0
6
CONTINUOUS
66
1
62
7
10
0.0
20
0.0
30
0.000000
0
VERTEX
8
0
10
389.000000
20
459.000000
0
VERTEX
8
0
10
386.100000
20
457.800000
0
VERTEX
8
0
10
370.846154
20
449.230769
0
VERTEX
8
0
10
364.846154
20
445.230769
0
VERTEX
8
0
10
358.000000
20
439.000000
0
VERTEX
8
0
10
359.000000
20
438.000000
0
VERTEX
8
0
10
367.000000
20
438.000000
0
VERTEX
8
0
10
369.900000
20
439.300000
0
VERTEX
8
0
10
371.088235
20
439.647059
0
VERTEX
8
0
10
383.000000
20
445.000000
0
VERTEX
8
0
10
386.000000
20
448.000000
0
VERTEX
8
0
10
389.647059
20
455.088235
0
VERTEX
8
0
10
390.000000
20
458.000000
0
SEQEND
0
POLYLINE
8
0
6
CONTINUOUS
66
1
62
7
10
0.0
20
0.0
30
0.000000
0
VERTEX
8
0
10
516.000000
20
436.000000
0
VERTEX
8
0
10
538.088235
20
441.647059
0
VERTEX
8
0
10
541.000000
20
442.000000
0
VERTEX
8
0
10
543.000000
20
444.000000
0
VERTEX
8
0
10
541.200000
20
448.100000
0
VERTEX
8
0
10
519.000000
20
471.000000
0
VERTEX
8
0
10
511.820000
20
475.760000
0
VERTEX
8
0
10
494.900000
20
486.800000
0
VERTEX
8
0
10
469.911765
20
497.647059
0
VERTEX
8
0
10
439.000000
20
505.000000
0
VERTEX
8
0
10
438.250000
20
504.750000
0
VERTEX
8
0
10
439.352941
20
499.088235
0
VERTEX
8
0
10
445.000000
20
473.000000
0
VERTEX
8
0
10
454.911765
20
470.647059
0
VERTEX
8
0
10
474.100000
20
463.200000
0
VERTEX
8
0
10
480.100000
20
460.200000
0
VERTEX
8
0
10
495.180000
20
450.240000
0
VERTEX
8
0
10
495.795082
20
449.754098
0
VERTEX
8
0
10
511.731047
20
437.137184
0
VERTEX
8
0
10
516.000000
20
436.000000
0
SEQEND
0
POLYLINE
8
0
6
CONTINUOUS
66
1
62
7
10
0.0
20
0.0
30
0.000000
0
VERTEX
8
0
10
228.000000
20
418.000000
0
VERTEX
8
0
10
235.700000
20
450.100000
0
VERTEX
8
0
10
243.000000
20
471.000000
0
VERTEX
8
0
10
224.900000
20
481.700000
0
VERTEX
8
0
10
223.100000
20
482.300000
0
VERTEX
8
0
10
222.000000
20
483.000000
0
VERTEX
8
0
10
214.000000
20
483.000000
0
VERTEX
8
0
10
206.053846
20
481.569231
0
VERTEX
8
0
10
202.100000
20
479.800000
0
VERTEX
8
0
10
200.000000
20
479.000000
0
VERTEX
8
0
10
196.800000
20
475.100000
0
VERTEX
8
0
10
193.000000
20
465.000000
0
VERTEX
8
0
10
193.000000
20
452.000000
0
VERTEX
8
0
10
197.200000
20
442.100000
0
VERTEX
8
0
10
198.000000
20
440.000000
0
VERTEX
8
0
10
209.804878
20
428.756098
0
VERTEX
8
0
10
214.195122
20
425.243902
0
VERTEX
8
0
10
224.100000
20
420.200000
0
VERTEX
8
0
10
228.000000
20
418.000000
0
SEQEND
0
POLYLINE
8
0
6
CONTINUOUS
66
1
62
7
10
0.0
20
0.0
30
0.000000
0
VERTEX
8
0
10
366.000000
20
398.000000
0
VERTEX
8
0
10
382.088235
20
401.647059
0
VERTEX
8
0
10
399.900000
20
409.200000
0
VERTEX
8
0
10
401.100000
20
409.800000
0
VERTEX
8
0
10
418.000000
20
424.000000
0
VERTEX
8
0
10
420.769231
20
429.153846
0
VERTEX
8
0
10
425.800000
20
438.100000
0
VERTEX
8
0
10
432.300000
20
457.900000
0
VERTEX
8
0
10
434.000000
20
468.000000
0
VERTEX
8
0
10
433.430769
20
479.053846
0
VERTEX
8
0
10
431.615385
20
490.923077
0
VERTEX
8
0
10
423.769231
20
508.846154
0
VERTEX
8
0
10
412.000000
20
525.000000
0
VERTEX
8
0
10
394.900000
20
536.800000
0
VERTEX
8
0
10
386.900000
20
540.800000
0
VERTEX
8
0
10
363.000000
20
545.000000
0
VERTEX
8
0
10
355.000000
20
545.000000
0
VERTEX
8
0
10
336.067568
20
541.594595
0
VERTEX
8
0
10
317.100000
20
535.800000
0
VERTEX
8
0
10
307.846154
20
530.230769
0
VERTEX
8
0
10
285.000000
20
513.000000
0
VERTEX
8
0
10
281.000000
20
509.000000
0
VERTEX
8
0
10
296.000000
20
492.000000
0
VERTEX
8
0
10
300.000000
20
488.000000
0
VERTEX
8
0
10
311.180000
20
496.760000
0
VERTEX
8
0
10
323.100000
20
504.800000
0
VERTEX
8
0
10
334.900000
20
510.200000
0
VERTEX
8
0
10
344.053846
20
513.569231
0
VERTEX
8
0
10
350.946154
20
514.430769
0
VERTEX
8
0
10
352.000000
20
515.000000
0
VERTEX
8
0
10
371.000000
20
515.000000
0
VERTEX
8
0
10
380.900000
20
510.800000
0
VERTEX
8
0
10
387.195122
20
506.243902
0
VERTEX
8
0
10
394.243902
20
499.195122
0
VERTEX
8
0
10
398.200000
20
494.100000
0
VERTEX
8
0
10
402.647059
20
483.911765
0
VERTEX
8
0
10
403.352941
20
481.088235
0
VERTEX
8
0
10
404.000000
20
480.000000
0
VERTEX
8
0
10
404.000000
20
467.000000
0
VERTEX
8
0
10
401.615385
20
457.076923
0
VERTEX
8
0
10
395.000000
20
443.000000
0
VERTEX
8
0
10
382.900000
20
434.200000
0
VERTEX
8
0
10
379.100000
20
432.700000
0
VERTEX
8
0
10
369.951220
20
429.439024
0
VERTEX
8
0
10
354.000000
20
428.000000
0
VERTEX
8
0
10
350.000000
20
430.000000
0
VERTEX
8
0
10
348.000000
20
429.000000
0
VERTEX
8
0
10
331.800000
20
407.100000
0
VERTEX
8
0
10
331.000000
20
406.000000
0
VERTEX
8
0
10
332.900000
20
404.800000
0
VERTEX
8
0
10
336.100000
20
403.200000
0
VERTEX
8
0
10
349.060000
20
399.420000
0
VERTEX
8
0
10
366.000000
20
398.000000
0
SEQEND
0
POLYLINE
8
0
6
CONTINUOUS
66
1
62
7
10
0.0
20
0.0
30
0.000000
0
VERTEX
8
0
10
515.000000
20
394.000000
0
VERTEX
8
0
10
569.088235
20
406.647059
0
VERTEX
8
0
10
579.100000
20
410.800000
0
VERTEX
8
0
10
585.100000
20
413.800000
0
VERTEX
8
0
10
602.000000
20
425.000000
0
VERTEX
8
0
10
607.000000
20
430.000000
0
VERTEX
8
0
10
621.769231
20
448.153846
0
VERTEX
8
0
10
662.240000
20
514.820000
0
VERTEX
8
0
10
667.760000
20
522.180000
0
VERTEX
8
0
10
681.000000
20
538.000000
0
VERTEX
8
0
10
680.000000
20
539.000000
0
VERTEX
8
0
10
672.000000
20
539.000000
0
VERTEX
8
0
10
671.000000
20
538.000000
0
VERTEX
8
0
10
624.973846
20
538.529231
0
VERTEX
8
0
10
608.026154
20
539.470769
0
VERTEX
8
0
10
590.000000
20
541.000000
0
VERTEX
8
0
10
551.000000
20
541.000000
0
VERTEX
8
0
10
543.053846
20
539.569231
0
VERTEX
8
0
10
529.923077
20
537.384615
0
VERTEX
8
0
10
521.100000
20
534.800000
0
VERTEX
8
0
10
513.900000
20
532.200000
0
VERTEX
8
0
10
497.180000
20
523.760000
0
VERTEX
8
0
10
493.820000
20
521.240000
0
VERTEX
8
0
10
478.000000
20
507.000000
0
VERTEX
8
0
10
479.000000
20
505.000000
0
VERTEX
8
0
10
485.100000
20
502.200000
0
VERTEX
8
0
10
505.000000
20
493.000000
0
VERTEX
8
0
10
512.900000
20
498.200000
0
VERTEX
8
0
10
534.040984
20
508.549180
0
VERTEX
8
0
10
545.000000
20
510.000000
0
VERTEX
8
0
10
558.000000
20
510.000000
0
VERTEX
8
0
10
564.940000
20
508.580000
0
VERTEX
8
0
10
572.846154
20
505.769231
0
VERTEX
8
0
10
579.000000
20
502.000000
0
VERTEX
8
0
10
581.240000
20
499.180000
0
VERTEX
8
0
10
584.230769
20
495.153846
0
VERTEX
8
0
10
589.594595
20
484.932432
0
VERTEX
8
0
10
590.405405
20
480.067568
0
VERTEX
8
0
10
591.000000
20
473.000000
0
VERTEX
8
0
10
589.647059
20
469.088235
0
VERTEX
8
0
10
589.200000
20
467.900000
0
VERTEX
8
0
10
583.000000
20
457.000000
0
VERTEX
8
0
10
579.000000
20
453.000000
0
VERTEX
8
0
10
566.846154
20
444.230769
0
VERTEX
8
0
10
566.100000
20
443.800000
0
VERTEX
8
0
10
554.900000
20
437.300000
0
VERTEX
8
0
10
553.100000
20
436.700000
0
VERTEX
8
0
10
502.000000
20
423.000000
0
VERTEX
8
0
10
500.000000
20
421.000000
0
VERTEX
8
0
10
513.000000
20
394.000000
0
VERTEX
8
0
10
515.000000
20
394.000000
0
SEQEND
0
POLYLINE
8
0
6
CONTINUOUS
66
1
62
7
10
0.0
20
0.0
30
0.000000
0
VERTEX
8
0
10
283.000000
20
379.000000
0
VERTEX
8
0
10
284.100000
20
379.800000
0
VERTEX
8
0
10
300.783186
20
390.247788
0
VERTEX
8
0
10
308.216814
20
396.752212
0
VERTEX
8
0
10
316.240000
20
404.820000
0
VERTEX
8
0
10
321.760000
20
412.180000
0
VERTEX
8
0
10
337.248869
20
431.773756
0
VERTEX
8
0
10
357.000000
20
453.000000
0
VERTEX
8
0
10
371.100000
20
460.800000
0
VERTEX
8
0
10
383.100000
20
466.800000
0
VERTEX
8
0
10
392.000000
20
471.000000
0
VERTEX
8
0
10
394.000000
20
473.000000
0
VERTEX
8
0
10
388.700000
20
488.900000
0
VERTEX
8
0
10
388.200000
20
490.100000
0
VERTEX
8
0
10
382.000000
20
498.000000
0
VERTEX
8
0
10
380.000000
20
498.500000
0
VERTEX
8
0
10
346.153846
20
480.769231
0
VERTEX
8
0
10
343.846154
20
479.230769
0
VERTEX
8
0
10
334.000000
20
473.000000
0
VERTEX
8
0
10
326.000000
20
465.000000
0
VERTEX
8
0
10
306.769231
20
439.153846
0
VERTEX
8
0
10
305.230769
20
436.846154
0
VERTEX
8
0
10
299.000000
20
428.000000
0
VERTEX
8
0
10
287.180000
20
416.760000
0
VERTEX
8
0
10
280.000000
20
411.000000
0
VERTEX
8
0
10
279.000000
20
409.000000
0
VERTEX
8
0
10
279.569231
20
396.946154
0
VERTEX
8
0
10
282.300000
20
380.100000
0
VERTEX
8
0
10
283.000000
20
379.000000
0
SEQEND
0
POLYLINE
8
0
6
CONTINUOUS
66
1
62
7
10
0.0
20
0.0
30
0.000000
0
VERTEX
8
0
10
231.000000
20
378.000000
0
VERTEX
8
0
10
228.000000
20
407.000000
0
VERTEX
8
0
10
214.195122
20
414.243902
0
VERTEX
8
0
10
192.000000
20
433.000000
0
VERTEX
8
0
10
186.200000
20
445.100000
0
VERTEX
8
0
10
184.700000
20
448.900000
0
VERTEX
8
0
10
183.000000
20
454.000000
0
VERTEX
8
0
10
183.000000
20
466.000000
0
VERTEX
8
0
10
184.352941
20
469.911765
0
VERTEX
8
0
10
190.000000
20
483.000000
0
VERTEX
8
0
10
193.000000
20
486.000000
0
VERTEX
8
0
10
202.000000
20
491.000000
0
VERTEX
8
0
10
223.000000
20
491.000000
0
VERTEX
8
0
10
234.900000
20
486.700000
0
VERTEX
8
0
10
248.100000
20
480.200000
0
VERTEX
8
0
10
253.756328
20
476.750080
0
VERTEX
8
0
10
293.000000
20
438.000000
0
VERTEX
8
0
10
303.230769
20
453.846154
0
VERTEX
8
0
10
308.400000
20
462.800000
0
VERTEX
8
0
10
304.000000
20
470.000000
0
VERTEX
8
0
10
266.180000
20
507.240000
0
VERTEX
8
0
10
259.846154
20
511.769231
0
VERTEX
8
0
10
245.100000
20
520.200000
0
VERTEX
8
0
10
229.100000
20
525.300000
0
VERTEX
8
0
10
209.982192
20
529.519178
0
VERTEX
8
0
10
140.011100
20
531.488384
0
VERTEX
8
0
10
108.053846
20
533.430769
0
VERTEX
8
0
10
107.000000
20
534.000000
0
VERTEX
8
0
10
102.000000
20
534.000000
0
VERTEX
8
0
10
101.000000
20
533.000000
0
VERTEX
8
0
10
124.800000
20
493.900000
0
VERTEX
8
0
10
129.800000
20
483.900000
0
VERTEX
8
0
10
155.230769
20
435.153846
0
VERTEX
8
0
10
161.769231
20
425.846154
0
VERTEX
8
0
10
176.000000
20
406.000000
0
VERTEX
8
0
10
183.000000
20
399.000000
0
VERTEX
8
0
10
192.180000
20
392.240000
0
VERTEX
8
0
10
202.100000
20
387.200000
0
VERTEX
8
0
10
204.900000
20
385.800000
0
VERTEX
8
0
10
221.067568
20
379.405405
0
VERTEX
8
0
10
231.000000
20
378.000000
0
SEQEND
0
POLYLINE
8
0
6
CONTINUOUS
66
1
62
7
10
0.0
20
0.0
30
0.000000
0
VERTEX
8
0
10
291.000000
20
373.000000
0
VERTEX
8
0
10
295.153846
20
375.769231
0
VERTEX
8
0
10
315.804878
20
390.243902
0
VERTEX
8
0
10
323.000000
20
396.000000
0
VERTEX
8
0
10
330.100000
20
393.300000
0
VERTEX
8
0
10
349.000000
20
389.000000
0
VERTEX
8
0
10
371.000000
20
389.000000
0
VERTEX
8
0
10
389.088235
20
393.647059
0
VERTEX
8
0
10
399.100000
20
397.800000
0
VERTEX
8
0
10
401.100000
20
398.800000
0
VERTEX
8
0
10
410.788235
20
405.247059
0
VERTEX
8
0
10
422.000000
20
415.000000
0
VERTEX
8
0
10
436.200000
20
437.900000
0
VERTEX
8
0
10
444.000000
20
458.000000
0
SEQEND
0
POLYLINE
8
0
6
CONTINUOUS
66
1
62
7
10
0.0
20
0.0
30
0.000000
0
VERTEX
8
0
10
292.000000
20
372.000000
0
VERTEX
8
0
10
291.000000
20
373.000000
0
SEQEND
0
POLYLINE
8
0
6
CONTINUOUS
66
1
62
7
10
0.0
20
0.0
30
0.000000
0
VERTEX
8
0
10
290.000000
20
371.000000
0
VERTEX
8
0
10
291.000000
20
373.000000
0
SEQEND
0
POLYLINE
8
0
6
CONTINUOUS
66
1
62
7
10
0.0
20
0.0
30
0.000000
0
VERTEX
8
0
10
290.000000
20
371.000000
0
VERTEX
8
0
10
292.000000
20
372.000000
0
SEQEND
0
POLYLINE
8
0
6
CONTINUOUS
66
1
62
7
10
0.0
20
0.0
30
0.000000
0
VERTEX
8
0
10
286.000000
20
370.000000
0
VERTEX
8
0
10
290.000000
20
371.000000
0
SEQEND
0
POLYLINE
8
0
6
CONTINUOUS
66
1
62
7
10
0.0
20
0.0
30
0.000000
0
VERTEX
8
0
10
255.000000
20
343.000000
0
VERTEX
8
0
10
276.000000
20
363.000000
0
VERTEX
8
0
10
270.455172
20
386.037931
0
VERTEX
8
0
10
269.544828
20
396.962069
0
VERTEX
8
0
10
269.000000
20
416.000000
0
VERTEX
8
0
10
270.455172
20
427.962069
0
VERTEX
8
0
10
270.594595
20
429.067568
0
VERTEX
8
0
10
273.000000
20
443.000000
0
VERTEX
8
0
10
251.000000
20
465.000000
0
VERTEX
8
0
10
249.352941
20
460.911765
0
VERTEX
8
0
10
245.700000
20
450.100000
0
VERTEX
8
0
10
241.615385
20
436.076923
0
VERTEX
8
0
10
239.000000
20
415.000000
0
VERTEX
8
0
10
239.000000
20
395.000000
0
VERTEX
8
0
10
240.450820
20
384.040984
0
VERTEX
8
0
10
243.352941
20
370.088235
0
VERTEX
8
0
10
248.300000
20
356.100000
0
VERTEX
8
0
10
255.000000
20
343.000000
0
SEQEND
0
POLYLINE
8
0
6
CONTINUOUS
66
1
62
7
10
0.0
20
0.0
30
0.000000
0
VERTEX
8
0
10
470.000000
20
328.000000
0
VERTEX
8
0
10
472.000000
20
338.000000
0
VERTEX
8
0
10
472.000000
20
356.000000
0
VERTEX
8
0
10
470.352941
20
361.088235
0
VERTEX
8
0
10
470.000000
20
364.000000
0
VERTEX
8
0
10
469.000000
20
365.000000
0
VERTEX
8
0
10
467.000000
20
364.000000
0
VERTEX
8
0
10
466.769231
20
363.153846
0
VERTEX
8
0
10
463.000000
20
357.000000
0
VERTEX
8
0
10
463.000000
20
343.000000
0
VERTEX
8
0
10
464.405405
20
337.067568
0
VERTEX
8
0
10
468.000000
20
329.000000
0
VERTEX
8
0
10
470.000000
20
328.000000
0
SEQEND
0
POLYLINE
8
0
6
CONTINUOUS
66
1
62
7
10
0.0
20
0.0
30
0.000000
0
VERTEX
8
0
10
470.000000
20
326.000000
0
VERTEX
8
0
10
470.000000
20
328.000000
0
SEQEND
0
POLYLINE
8
0
6
CONTINUOUS
66
1
62
7
10
0.0
20
0.0
30
0.000000
0
VERTEX
8
0
10
523.000000
20
324.000000
0
VERTEX
8
0
10
528.200000
20
332.900000
0
VERTEX
8
0
10
531.647059
20
342.088235
0
VERTEX
8
0
10
534.000000
20
356.000000
0
VERTEX
8
0
10
533.455172
20
371.037931
0
VERTEX
8
0
10
532.000000
20
386.000000
0
VERTEX
8
0
10
529.100000
20
387.300000
0
VERTEX
8
0
10
528.000000
20
388.000000
0
VERTEX
8
0
10
516.250000
20
384.750000
0
VERTEX
8
0
10
518.384615
20
371.076923
0
VERTEX
8
0
10
519.384615
20
366.076923
0
VERTEX
8
0
10
521.522642
20
346.979245
0
VERTEX
8
0
10
523.000000
20
324.000000
0
SEQEND
0
POLYLINE
8
0
6
CONTINUOUS
66
1
62
7
10
0.0
20
0.0
30
0.000000
0
VERTEX
8
0
10
523.000000
20
323.000000
0
VERTEX
8
0
10
523.000000
20
324.000000
0
SEQEND
0
POLYLINE
8
0
6
CONTINUOUS
66
1
62
7
10
0.0
20
0.0
30
0.000000
0
VERTEX
8
0
10
503.000000
20
311.000000
0
VERTEX
8
0
10
504.100000
20
311.700000
0
VERTEX
8
0
10
506.000000
20
312.000000
0
VERTEX
8
0
10
510.000000
20
316.000000
0
VERTEX
8
0
10
510.524887
20
318.022624
0
VERTEX
8
0
10
511.475113
20
337.977376
0
VERTEX
8
0
10
512.000000
20
360.000000
0
VERTEX
8
0
10
510.594595
20
365.932432
0
VERTEX
8
0
10
507.200000
20
379.100000
0
VERTEX
8
0
10
488.800000
20
424.900000
0
VERTEX
8
0
10
480.000000
20
450.000000
0
VERTEX
8
0
10
479.100000
20
450.200000
0
VERTEX
8
0
10
455.000000
20
460.000000
0
VERTEX
8
0
10
454.000000
20
459.000000
0
VERTEX
8
0
10
454.000000
20
448.000000
0
VERTEX
8
0
10
456.352941
20
431.088235
0
VERTEX
8
0
10
456.647059
20
429.911765
0
VERTEX
8
0
10
462.200000
20
410.100000
0
VERTEX
8
0
10
466.200000
20
401.100000
0
VERTEX
8
0
10
475.647059
20
378.911765
0
VERTEX
8
0
10
477.300000
20
373.100000
0
VERTEX
8
0
10
480.594595
20
359.932432
0
VERTEX
8
0
10
482.405405
20
349.067568
0
VERTEX
8
0
10
483.000000
20
348.000000
0
VERTEX
8
0
10
482.000000
20
316.000000
0
VERTEX
8
0
10
483.000000
20
315.000000
0
VERTEX
8
0
10
494.076923
20
312.384615
0
VERTEX
8
0
10
503.000000
20
311.000000
0
SEQEND
0
POLYLINE
8
0
6
CONTINUOUS
66
1
62
7
10
0.0
20
0.0
30
0.000000
0
VERTEX
8
0
10
351.000000
20
307.000000
0
VERTEX
8
0
10
351.000000
20
308.000000
0
VERTEX
8
0
10
348.000000
20
313.000000
0
VERTEX
8
0
10
340.000000
20
321.000000
0
VERTEX
8
0
10
329.923077
20
324.615385
0
VERTEX
8
0
10
326.076923
20
325.384615
0
VERTEX
8
0
10
318.000000
20
326.000000
0
VERTEX
8
0
10
317.000000
20
325.000000
0
VERTEX
8
0
10
326.820000
20
316.760000
0
VERTEX
8
0
10
332.900000
20
312.800000
0
VERTEX
8
0
10
343.088235
20
308.352941
0
VERTEX
8
0
10
351.000000
20
307.000000
0
SEQEND
0
POLYLINE
8
0
6
CONTINUOUS
66
1
62
7
10
0.0
20
0.0
30
0.000000
0
VERTEX
8
0
10
439.000000
20
285.000000
0
VERTEX
8
0
10
431.245902
20
294.204918
0
VERTEX
8
0
10
425.230769
20
303.153846
0
VERTEX
8
0
10
423.769231
20
305.846154
0
VERTEX
8
0
10
419.352941
20
314.088235
0
VERTEX
8
0
10
417.300000
20
321.100000
0
VERTEX
8
0
10
414.000000
20
339.000000
0
VERTEX
8
0
10
414.000000
20
357.000000
0
VERTEX
8
0
10
415.445545
20
366.955446
0
VERTEX
8
0
10
420.200000
20
379.900000
0
VERTEX
8
0
10
427.800000
20
394.100000
0
VERTEX
8
0
10
436.000000
20
405.000000
0
VERTEX
8
0
10
449.000000
20
417.000000
0
VERTEX
8
0
10
445.445545
20
448.044554
0
VERTEX
8
0
10
444.000000
20
458.000000
0
SEQEND
0
POLYLINE
8
0
6
CONTINUOUS
66
1
62
7
10
0.0
20
0.0
30
0.000000
0
VERTEX
8
0
10
438.000000
20
284.000000
0
VERTEX
8
0
10
422.100000
20
290.300000
0
VERTEX
8
0
10
406.000000
20
298.000000
0
VERTEX
8
0
10
405.647059
20
300.911765
0
VERTEX
8
0
10
399.700000
20
321.900000
0
VERTEX
8
0
10
399.300000
20
323.100000
0
VERTEX
8
0
10
394.769231
20
332.846154
0
VERTEX
8
0
10
393.230769
20
335.153846
0
VERTEX
8
0
10
391.000000
20
340.000000
0
VERTEX
8
0
10
377.000000
20
354.000000
0
VERTEX
8
0
10
366.820000
20
361.760000
0
VERTEX
8
0
10
359.900000
20
365.800000
0
VERTEX
8
0
10
349.900000
20
369.700000
0
VERTEX
8
0
10
335.076923
20
373.384615
0
VERTEX
8
0
10
328.000000
20
375.000000
0
VERTEX
8
0
10
309.000000
20
375.000000
0
VERTEX
8
0
10
295.923077
20
372.384615
0
VERTEX
8
0
10
292.000000
20
372.000000
0
SEQEND
0
POLYLINE
8
0
6
CONTINUOUS
66
1
62
7
10
0.0
20
0.0
30
0.000000
0
VERTEX
8
0
10
438.000000
20
284.000000
0
VERTEX
8
0
10
439.000000
20
285.000000
0
SEQEND
0
POLYLINE
8
0
6
CONTINUOUS
66
1
62
7
10
0.0
20
0.0
30
0.000000
0
VERTEX
8
0
10
440.000000
20
284.000000
0
VERTEX
8
0
10
439.000000
20
285.000000
0
SEQEND
0
POLYLINE
8
0
6
CONTINUOUS
66
1
62
7
10
0.0
20
0.0
30
0.000000
0
VERTEX
8
0
10
440.000000
20
283.000000
0
VERTEX
8
0
10
438.000000
20
284.000000
0
SEQEND
0
POLYLINE
8
0
6
CONTINUOUS
66
1
62
7
10
0.0
20
0.0
30
0.000000
0
VERTEX
8
0
10
440.000000
20
283.000000
0
VERTEX
8
0
10
440.000000
20
284.000000
0
SEQEND
0
POLYLINE
8
0
6
CONTINUOUS
66
1
62
7
10
0.0
20
0.0
30
0.000000
0
VERTEX
8
0
10
442.000000
20
283.000000
0
VERTEX
8
0
10
440.000000
20
284.000000
0
SEQEND
0
POLYLINE
8
0
6
CONTINUOUS
66
1
62
7
10
0.0
20
0.0
30
0.000000
0
VERTEX
8
0
10
442.000000
20
282.000000
0
VERTEX
8
0
10
440.000000
20
283.000000
0
SEQEND
0
POLYLINE
8
0
6
CONTINUOUS
66
1
62
7
10
0.0
20
0.0
30
0.000000
0
VERTEX
8
0
10
442.000000
20
282.000000
0
VERTEX
8
0
10
442.000000
20
283.000000
0
SEQEND
0
POLYLINE
8
0
6
CONTINUOUS
66
1
62
7
10
0.0
20
0.0
30
0.000000
0
VERTEX
8
0
10
291.000000
20
281.000000
0
VERTEX
8
0
10
290.000000
20
282.000000
0
SEQEND
0
POLYLINE
8
0
6
CONTINUOUS
66
1
62
7
10
0.0
20
0.0
30
0.000000
0
VERTEX
8
0
10
291.000000
20
280.000000
0
VERTEX
8
0
10
291.000000
20
281.000000
0
SEQEND
0
POLYLINE
8
0
6
CONTINUOUS
66
1
62
7
10
0.0
20
0.0
30
0.000000
0
VERTEX
8
0
10
447.000000
20
279.000000
0
VERTEX
8
0
10
442.000000
20
282.000000
0
SEQEND
0
POLYLINE
8
0
6
CONTINUOUS
66
1
62
7
10
0.0
20
0.0
30
0.000000
0
VERTEX
8
0
10
506.000000
20
272.000000
0
VERTEX
8
0
10
514.076923
20
273.615385
0
VERTEX
8
0
10
522.900000
20
276.200000
0
VERTEX
8
0
10
528.900000
20
278.300000
0
VERTEX
8
0
10
538.846154
20
284.230769
0
VERTEX
8
0
10
541.153846
20
285.769231
0
VERTEX
8
0
10
548.000000
20
292.000000
0
VERTEX
8
0
10
558.760000
20
306.180000
0
VERTEX
8
0
10
560.769231
20
309.153846
0
VERTEX
8
0
10
564.800000
20
318.100000
0
VERTEX
8
0
10
565.200000
20
318.900000
0
VERTEX
8
0
10
569.615385
20
331.076923
0
VERTEX
8
0
10
570.384615
20
334.923077
0
VERTEX
8
0
10
574.000000
20
358.000000
0
VERTEX
8
0
10
574.000000
20
370.000000
0
VERTEX
8
0
10
569.000000
20
395.000000
0
VERTEX
8
0
10
568.750000
20
395.750000
0
VERTEX
8
0
10
557.076923
20
393.615385
0
VERTEX
8
0
10
551.923077
20
392.384615
0
VERTEX
8
0
10
541.000000
20
390.000000
0
VERTEX
8
0
10
540.000000
20
389.000000
0
VERTEX
8
0
10
540.594595
20
384.932432
0
VERTEX
8
0
10
541.405405
20
380.067568
0
VERTEX
8
0
10
544.000000
20
367.000000
0
VERTEX
8
0
10
544.000000
20
357.000000
0
VERTEX
8
0
10
542.549180
20
346.040984
0
VERTEX
8
0
10
539.700000
20
336.100000
0
VERTEX
8
0
10
538.200000
20
330.900000
0
VERTEX
8
0
10
531.000000
20
318.000000
0
VERTEX
8
0
10
527.000000
20
314.000000
0
VERTEX
8
0
10
515.900000
20
307.200000
0
VERTEX
8
0
10
515.100000
20
306.800000
0
VERTEX
8
0
10
503.000000
20
302.000000
0
VERTEX
8
0
10
489.000000
20
302.000000
0
VERTEX
8
0
10
476.900000
20
305.800000
0
VERTEX
8
0
10
474.900000
20
306.800000
0
VERTEX
8
0
10
472.000000
20
308.000000
0
VERTEX
8
0
10
463.000000
20
317.000000
0
VERTEX
8
0
10
456.700000
20
328.900000
0
VERTEX
8
0
10
455.700000
20
331.900000
0
VERTEX
8
0
10
453.000000
20
344.000000
0
VERTEX
8
0
10
453.000000
20
352.000000
0
VERTEX
8
0
10
458.200000
20
365.900000
0
VERTEX
8
0
10
458.800000
20
367.100000
0
VERTEX
8
0
10
465.000000
20
378.000000
0
VERTEX
8
0
10
461.800000
20
384.900000
0
VERTEX
8
0
10
453.000000
20
405.000000
0
VERTEX
8
0
10
452.000000
20
405.000000
0
VERTEX
8
0
10
438.000000
20
392.000000
0
VERTEX
8
0
10
433.245902
20
385.795082
0
VERTEX
8
0
10
428.300000
20
374.900000
0
VERTEX
8
0
10
427.200000
20
371.900000
0
VERTEX
8
0
10
423.000000
20
356.000000
0
VERTEX
8
0
10
423.000000
20
337.000000
0
VERTEX
8
0
10
427.352941
20
321.088235
0
VERTEX
8
0
10
432.800000
20
308.900000
0
VERTEX
8
0
10
442.000000
20
296.000000
0
VERTEX
8
0
10
458.180000
20
283.240000
0
VERTEX
8
0
10
475.088235
20
275.352941
0
VERTEX
8
0
10
477.911765
20
274.647059
0
VERTEX
8
0
10
487.023691
20
272.473815
0
VERTEX
8
0
10
506.000000
20
272.000000
0
SEQEND
0
POLYLINE
8
0
6
CONTINUOUS
66
1
62
7
10
0.0
20
0.0
30
0.000000
0
VERTEX
8
0
10
417.000000
20
251.000000
0
VERTEX
8
0
10
418.900000
20
252.200000
0
VERTEX
8
0
10
440.000000
20
267.000000
0
VERTEX
8
0
10
442.000000
20
269.000000
0
VERTEX
8
0
10
437.153846
20
272.230769
0
VERTEX
8
0
10
434.846154
20
273.769231
0
VERTEX
8
0
10
420.900000
20
280.700000
0
VERTEX
8
0
10
419.100000
20
281.300000
0
VERTEX
8
0
10
393.932432
20
288.594595
0
VERTEX
8
0
10
353.923077
20
295.615385
0
VERTEX
8
0
10
345.100000
20
298.200000
0
VERTEX
8
0
10
324.900000
20
305.800000
0
VERTEX
8
0
10
317.195122
20
310.243902
0
VERTEX
8
0
10
304.000000
20
322.000000
0
VERTEX
8
0
10
292.000000
20
310.000000
0
VERTEX
8
0
10
288.000000
20
302.000000
0
VERTEX
8
0
10
289.000000
20
298.000000
0
VERTEX
8
0
10
294.000000
20
293.000000
0
VERTEX
8
0
10
301.153846
20
288.230769
0
VERTEX
8
0
10
321.900000
20
274.800000
0
VERTEX
8
0
10
336.088235
20
268.352941
0
VERTEX
8
0
10
342.911765
20
266.647059
0
VERTEX
8
0
10
368.053846
20
262.430769
0
VERTEX
8
0
10
382.946154
20
260.569231
0
VERTEX
8
0
10
396.100000
20
258.300000
0
VERTEX
8
0
10
417.000000
20
251.000000
0
SEQEND
0
POLYLINE
8
0
6
CONTINUOUS
66
1
62
7
10
0.0
20
0.0
30
0.000000
0
VERTEX
8
0
10
291.000000
20
280.000000
0
VERTEX
8
0
10
292.800000
20
276.900000
0
VERTEX
8
0
10
300.000000
20
265.000000
0
VERTEX
8
0
10
310.820000
20
255.760000
0
VERTEX
8
0
10
323.100000
20
248.200000
0
VERTEX
8
0
10
331.900000
20
244.700000
0
VERTEX
8
0
10
335.000000
20
243.000000
0
VERTEX
8
0
10
341.000000
20
243.000000
0
VERTEX
8
0
10
343.000000
20
245.000000
0
VERTEX
8
0
10
344.700000
20
252.100000
0
VERTEX
8
0
10
345.300000
20
253.900000
0
VERTEX
8
0
10
346.000000
20
255.000000
0
VERTEX
8
0
10
344.000000
20
257.000000
0
VERTEX
8
0
10
342.100000
20
257.300000
0
VERTEX
8
0
10
329.100000
20
262.200000
0
VERTEX
8
0
10
326.100000
20
263.300000
0
VERTEX
8
0
10
308.900000
20
270.800000
0
VERTEX
8
0
10
291.000000
20
281.000000
0
SEQEND
0
POLYLINE
8
0
6
CONTINUOUS
66
1
62
7
10
0.0
20
0.0
30
0.000000
0
VERTEX
8
0
10
330.000000
20
204.000000
0
VERTEX
8
0
10
338.000000
20
225.000000
0
VERTEX
8
0
10
338.000000
20
228.000000
0
VERTEX
8
0
10
336.000000
20
233.000000
0
VERTEX
8
0
10
316.100000
20
240.300000
0
VERTEX
8
0
10
309.153846
20
244.230769
0
VERTEX
8
0
10
306.846154
20
245.769231
0
VERTEX
8
0
10
301.000000
20
249.000000
0
VERTEX
8
0
10
287.000000
20
263.000000
0
VERTEX
8
0
10
278.000000
20
282.000000
0
VERTEX
8
0
10
278.000000
20
295.000000
0
VERTEX
8
0
10
280.384615
20
306.923077
0
VERTEX
8
0
10
280.800000
20
308.100000
0
VERTEX
8
0
10
285.000000
20
317.000000
0
VERTEX
8
0
10
296.000000
20
328.000000
0
VERTEX
8
0
10
310.067568
20
334.594595
0
VERTEX
8
0
10
314.932432
20
335.405405
0
VERTEX
8
0
10
325.000000
20
336.000000
0
VERTEX
8
0
10
335.911765
20
333.647059
0
VERTEX
8
0
10
345.100000
20
330.200000
0
VERTEX
8
0
10
349.000000
20
328.000000
0
VERTEX
8
0
10
353.000000
20
324.000000
0
VERTEX
8
0
10
358.800000
20
315.900000
0
VERTEX
8
0
10
367.000000
20
301.000000
0
VERTEX
8
0
10
394.000000
20
299.000000
0
VERTEX
8
0
10
395.000000
20
300.000000
0
VERTEX
8
0
10
389.300000
20
320.100000
0
VERTEX
8
0
10
388.700000
20
321.900000
0
VERTEX
8
0
10
384.769231
20
328.846154
0
VERTEX
8
0
10
381.230769
20
334.153846
0
VERTEX
8
0
10
379.000000
20
338.000000
0
VERTEX
8
0
10
363.783186
20
351.752212
0
VERTEX
8
0
10
348.100000
20
361.200000
0
VERTEX
8
0
10
327.000000
20
366.000000
0
VERTEX
8
0
10
309.000000
20
366.000000
0
VERTEX
8
0
10
296.088235
20
362.647059
0
VERTEX
8
0
10
294.100000
20
361.800000
0
VERTEX
8
0
10
280.846154
20
355.230769
0
VERTEX
8
0
10
274.795082
20
350.245902
0
VERTEX
8
0
10
266.000000
20
342.000000
0
VERTEX
8
0
10
260.247059
20
334.788235
0
VERTEX
8
0
10
255.200000
20
324.900000
0
VERTEX
8
0
10
254.300000
20
322.900000
0
VERTEX
8
0
10
249.430769
20
303.946154
0
VERTEX
8
0
10
248.569231
20
297.053846
0
VERTEX
8
0
10
248.000000
20
289.000000
0
VERTEX
8
0
10
251.300000
20
273.100000
0
VERTEX
8
0
10
252.300000
20
270.100000
0
VERTEX
8
0
10
257.230769
20
258.153846
0
VERTEX
8
0
10
258.769231
20
255.846154
0
VERTEX
8
0
10
265.000000
20
245.000000
0
VERTEX
8
0
10
274.000000
20
236.000000
0
VERTEX
8
0
10
287.153846
20
225.230769
0
VERTEX
8
0
10
300.153846
20
216.230769
0
VERTEX
8
0
10
318.100000
20
208.200000
0
VERTEX
8
0
10
330.000000
20
204.000000
0
SEQEND
0
POLYLINE
8
0
6
CONTINUOUS
66
1
62
7
10
0.0
20
0.0
30
0.000000
0
VERTEX
8
0
10
387.000000
20
200.000000
0
VERTEX
8
0
10
426.100000
20
210.700000
0
VERTEX
8
0
10
427.900000
20
211.300000
0
VERTEX
8
0
10
446.900000
20
222.200000
0
VERTEX
8
0
10
465.180000
20
235.760000
0
VERTEX
8
0
10
472.248276
20
242.779310
0
VERTEX
8
0
10
485.752941
20
258.211765
0
VERTEX
8
0
10
488.000000
20
262.000000
0
VERTEX
8
0
10
483.911765
20
263.647059
0
VERTEX
8
0
10
481.088235
20
264.352941
0
VERTEX
8
0
10
459.000000
20
271.000000
0
VERTEX
8
0
10
439.180000
20
252.760000
0
VERTEX
8
0
10
421.100000
20
241.800000
0
VERTEX
8
0
10
416.100000
20
239.700000
0
VERTEX
8
0
10
394.000000
20
232.000000
0
VERTEX
8
0
10
390.800000
20
225.100000
0
VERTEX
8
0
10
386.352941
20
211.911765
0
VERTEX
8
0
10
385.384615
20
207.923077
0
VERTEX
8
0
10
384.000000
20
201.000000
0
VERTEX
8
0
10
385.000000
20
200.000000
0
VERTEX
8
0
10
387.000000
20
200.000000
0
SEQEND
0
POLYLINE
8
0
6
CONTINUOUS
66
1
62
7
10
0.0
20
0.0
30
0.000000
0
VERTEX
8
0
10
410.000000
20
149.000000
0
VERTEX
8
0
10
417.000000
20
151.000000
0
VERTEX
8
0
10
424.240000
20
158.820000
0
VERTEX
8
0
10
428.200000
20
164.900000
0
VERTEX
8
0
10
433.594595
20
177.067568
0
VERTEX
8
0
10
434.569231
20
183.053846
0
VERTEX
8
0
10
437.000000
20
204.000000
0
VERTEX
8
0
10
436.000000
20
205.000000
0
VERTEX
8
0
10
433.100000
20
203.700000
0
VERTEX
8
0
10
402.932432
20
194.405405
0
VERTEX
8
0
10
396.932432
20
193.405405
0
VERTEX
8
0
10
384.000000
20
191.000000
0
VERTEX
8
0
10
383.000000
20
190.000000
0
VERTEX
8
0
10
383.000000
20
170.000000
0
VERTEX
8
0
10
390.000000
20
155.000000
0
VERTEX
8
0
10
392.000000
20
153.000000
0
VERTEX
8
0
10
399.037931
20
149.455172
0
VERTEX
8
0
10
410.000000
20
149.000000
0
SEQEND
0
POLYLINE
8
0
6
CONTINUOUS
66
1
62
7
10
0.0
20
0.0
30
0.000000
0
VERTEX
8
0
10
424.000000
20
58.000000
0
VERTEX
8
0
10
462.076923
20
63.615385
0
VERTEX
8
0
10
495.100000
20
73.700000
0
VERTEX
8
0
10
511.100000
20
78.800000
0
VERTEX
8
0
10
556.153846
20
100.769231
0
VERTEX
8
0
10
581.153846
20
117.769231
0
VERTEX
8
0
10
590.773756
20
124.248869
0
VERTEX
8
0
10
630.000000
20
161.000000
0
VERTEX
8
0
10
647.754098
20
183.204918
0
VERTEX
8
0
10
656.754098
20
194.204918
0
VERTEX
8
0
10
678.769231
20
232.153846
0
VERTEX
8
0
10
679.200000
20
232.900000
0
VERTEX
8
0
10
686.700000
20
250.100000
0
VERTEX
8
0
10
687.300000
20
251.900000
0
VERTEX
8
0
10
699.647059
20
287.088235
0
VERTEX
8
0
10
708.352941
20
325.911765
0
VERTEX
8
0
10
710.464602
20
350.969027
0
VERTEX
8
0
10
711.461929
20
364.967005
0
VERTEX
8
0
10
712.000000
20
382.000000
0
VERTEX
8
0
10
710.527624
20
400.975138
0
VERTEX
8
0
10
707.384615
20
425.076923
0
VERTEX
8
0
10
703.615385
20
444.923077
0
VERTEX
8
0
10
693.700000
20
478.900000
0
VERTEX
8
0
10
692.647059
20
482.911765
0
VERTEX
8
0
10
684.800000
20
499.900000
0
VERTEX
8
0
10
684.300000
20
501.100000
0
VERTEX
8
0
10
677.000000
20
517.000000
0
VERTEX
8
0
10
676.000000
20
518.000000
0
VERTEX
8
0
10
671.769231
20
513.153846
0
VERTEX
8
0
10
625.240000
20
438.820000
0
VERTEX
8
0
10
622.000000
20
434.000000
0
VERTEX
8
0
10
608.000000
20
420.000000
0
VERTEX
8
0
10
586.846154
20
405.230769
0
VERTEX
8
0
10
578.000000
20
400.000000
0
VERTEX
8
0
10
582.000000
20
364.000000
0
VERTEX
8
0
10
582.000000
20
351.000000
0
VERTEX
8
0
10
578.615385
20
331.076923
0
VERTEX
8
0
10
578.300000
20
329.900000
0
VERTEX
8
0
10
571.800000
20
312.100000
0
VERTEX
8
0
10
566.800000
20
303.100000
0
VERTEX
8
0
10
556.000000
20
288.000000
0
VERTEX
8
0
10
551.000000
20
283.000000
0
VERTEX
8
0
10
537.820000
20
273.240000
0
VERTEX
8
0
10
537.100000
20
272.800000
0
VERTEX
8
0
10
527.911765
20
269.352941
0
VERTEX
8
0
10
504.911765
20
263.352941
0
VERTEX
8
0
10
500.000000
20
262.000000
0
VERTEX
8
0
10
478.000000
20
234.000000
0
VERTEX
8
0
10
478.700000
20
231.900000
0
VERTEX
8
0
10
485.352941
20
207.088235
0
VERTEX
8
0
10
486.000000
20
206.000000
0
VERTEX
8
0
10
486.000000
20
194.000000
0
VERTEX
8
0
10
484.538071
20
180.032995
0
VERTEX
8
0
10
480.647059
20
164.088235
0
VERTEX
8
0
10
479.647059
20
160.088235
0
VERTEX
8
0
10
469.200000
20
133.900000
0
VERTEX
8
0
10
463.800000
20
123.100000
0
VERTEX
8
0
10
429.769231
20
71.153846
0
VERTEX
8
0
10
428.230769
20
68.846154
0
VERTEX
8
0
10
422.000000
20
59.000000
0
VERTEX
8
0
10
424.000000
20
58.000000
0
SEQEND
0
POLYLINE
8
0
6
CONTINUOUS
66
1
62
7
10
0.0
20
0.0
30
0.000000
0
VERTEX
8
0
10
381.000000
20
57.000000
0
VERTEX
8
0
10
379.200000
20
62.100000
0
VERTEX
8
0
10
346.769231
20
119.846154
0
VERTEX
8
0
10
343.200000
20
126.100000
0
VERTEX
8
0
10
335.352941
20
147.088235
0
VERTEX
8
0
10
330.000000
20
166.000000
0
VERTEX
8
0
10
331.000000
20
193.000000
0
VERTEX
8
0
10
329.000000
20
195.000000
0
VERTEX
8
0
10
318.900000
20
198.700000
0
VERTEX
8
0
10
317.100000
20
199.300000
0
VERTEX
8
0
10
301.153846
20
206.230769
0
VERTEX
8
0
10
292.900000
20
210.800000
0
VERTEX
8
0
10
278.216814
20
221.247788
0
VERTEX
8
0
10
270.000000
20
228.000000
0
VERTEX
8
0
10
255.756098
20
243.804878
0
VERTEX
8
0
10
252.243902
20
248.195122
0
VERTEX
8
0
10
247.200000
20
258.100000
0
VERTEX
8
0
10
246.800000
20
258.900000
0
VERTEX
8
0
10
241.439024
20
273.048780
0
VERTEX
8
0
10
240.560976
20
280.951220
0
VERTEX
8
0
10
240.000000
20
300.000000
0
VERTEX
8
0
10
247.000000
20
334.000000
0
VERTEX
8
0
10
243.300000
20
343.100000
0
VERTEX
8
0
10
239.200000
20
356.100000
0
VERTEX
8
0
10
234.000000
20
367.000000
0
VERTEX
8
0
10
232.000000
20
369.000000
0
VERTEX
8
0
10
224.959016
20
371.549180
0
VERTEX
8
0
10
215.040984
20
372.450820
0
VERTEX
8
0
10
203.100000
20
377.200000
0
VERTEX
8
0
10
193.900000
20
381.800000
0
VERTEX
8
0
10
185.180000
20
387.240000
0
VERTEX
8
0
10
177.820000
20
392.760000
0
VERTEX
8
0
10
168.752212
20
401.783186
0
VERTEX
8
0
10
158.760000
20
413.820000
0
VERTEX
8
0
10
146.200000
20
432.100000
0
VERTEX
8
0
10
133.200000
20
458.100000
0
VERTEX
8
0
10
111.000000
20
502.000000
0
VERTEX
8
0
10
109.000000
20
504.000000
0
VERTEX
8
0
10
97.700000
20
475.100000
0
VERTEX
8
0
10
97.200000
20
473.900000
0
VERTEX
8
0
10
91.647059
20
457.088235
0
VERTEX
8
0
10
88.615385
20
443.076923
0
VERTEX
8
0
10
83.445545
20
419.955446
0
VERTEX
8
0
10
82.554455
20
411.044554
0
VERTEX
8
0
10
80.000000
20
366.000000
0
VERTEX
8
0
10
83.445545
20
326.044554
0
VERTEX
8
0
10
92.352941
20
285.088235
0
VERTEX
8
0
10
104.200000
20
254.100000
0
VERTEX
8
0
10
112.800000
20
233.900000
0
VERTEX
8
0
10
138.245902
20
191.204918
0
VERTEX
8
0
10
156.754098
20
168.795082
0
VERTEX
8
0
10
166.000000
20
157.000000
0
VERTEX
8
0
10
206.216814
20
120.247788
0
VERTEX
8
0
10
220.153846
20
111.230769
0
VERTEX
8
0
10
245.153846
20
95.230769
0
VERTEX
8
0
10
282.100000
20
79.200000
0
VERTEX
8
0
10
296.911765
20
73.647059
0
VERTEX
8
0
10
336.067568
20
62.405405
0
VERTEX
8
0
10
381.000000
20
57.000000
0
SEQEND
0
POLYLINE
8
0
6
CONTINUOUS
66
1
62
7
10
0.0
20
0.0
30
0.000000
0
VERTEX
8
0
10
401.000000
20
36.000000
0
VERTEX
8
0
10
409.800000
20
53.100000
0
VERTEX
8
0
10
448.230769
20
115.846154
0
VERTEX
8
0
10
451.769231
20
121.153846
0
VERTEX
8
0
10
459.800000
20
135.100000
0
VERTEX
8
0
10
460.800000
20
137.100000
0
VERTEX
8
0
10
473.700000
20
168.100000
0
VERTEX
8
0
10
474.300000
20
169.900000
0
VERTEX
8
0
10
477.000000
20
185.000000
0
VERTEX
8
0
10
477.000000
20
197.000000
0
VERTEX
8
0
10
474.580000
20
210.940000
0
VERTEX
8
0
10
474.405405
20
212.067568
0
VERTEX
8
0
10
472.000000
20
225.000000
0
VERTEX
8
0
10
471.000000
20
226.000000
0
VERTEX
8
0
10
465.846154
20
223.230769
0
VERTEX
8
0
10
458.153846
20
217.769231
0
VERTEX
8
0
10
448.000000
20
211.000000
0
VERTEX
8
0
10
445.549180
20
183.040984
0
VERTEX
8
0
10
442.647059
20
173.088235
0
VERTEX
8
0
10
434.000000
20
154.000000
0
VERTEX
8
0
10
423.100000
20
143.800000
0
VERTEX
8
0
10
415.940000
20
140.420000
0
VERTEX
8
0
10
410.060000
20
139.580000
0
VERTEX
8
0
10
402.000000
20
139.000000
0
VERTEX
8
0
10
389.000000
20
143.000000
0
VERTEX
8
0
10
385.760000
20
146.820000
0
VERTEX
8
0
10
382.769231
20
150.846154
0
VERTEX
8
0
10
374.352941
20
165.088235
0
VERTEX
8
0
10
373.647059
20
167.911765
0
VERTEX
8
0
10
373.000000
20
169.000000
0
VERTEX
8
0
10
373.000000
20
197.000000
0
VERTEX
8
0
10
378.352941
20
217.911765
0
VERTEX
8
0
10
378.647059
20
219.088235
0
VERTEX
8
0
10
385.000000
20
250.000000
0
VERTEX
8
0
10
384.000000
20
251.000000
0
VERTEX
8
0
10
358.000000
20
253.000000
0
VERTEX
8
0
10
356.000000
20
251.000000
0
VERTEX
8
0
10
353.300000
20
241.900000
0
VERTEX
8
0
10
352.700000
20
240.100000
0
VERTEX
8
0
10
340.405405
20
200.932432
0
VERTEX
8
0
10
338.000000
20
189.000000
0
VERTEX
8
0
10
338.554455
20
177.955446
0
VERTEX
8
0
10
340.405405
20
163.067568
0
VERTEX
8
0
10
347.300000
20
137.100000
0
VERTEX
8
0
10
351.800000
20
127.900000
0
VERTEX
8
0
10
395.300000
20
48.100000
0
VERTEX
8
0
10
401.000000
20
36.000000
0
SEQEND
0
POLYLINE
8
0
6
CONTINUOUS
66
1
62
7
10
0.0
20
0.0
30
0.000000
0
VERTEX
8
0
10
401.000000
20
35.000000
0
VERTEX
8
0
10
401.000000
20
36.000000
0
SEQEND
0
POLYLINE
8
0
6
CONTINUOUS
66
1
62
7
10
0.0
20
0.0
30
0.000000
0
VERTEX
8
0
10
401.000000
20
9.000000
0
VERTEX
8
0
10
445.951220
20
13.439024
0
VERTEX
8
0
10
465.923077
20
17.384615
0
VERTEX
8
0
10
484.923077
20
21.384615
0
VERTEX
8
0
10
501.100000
20
25.700000
0
VERTEX
8
0
10
536.900000
20
38.300000
0
VERTEX
8
0
10
553.900000
20
46.200000
0
VERTEX
8
0
10
579.100000
20
59.800000
0
VERTEX
8
0
10
590.820000
20
66.240000
0
VERTEX
8
0
10
594.180000
20
68.760000
0
VERTEX
8
0
10
632.000000
20
96.000000
0
VERTEX
8
0
10
673.000000
20
137.000000
0
VERTEX
8
0
10
683.760000
20
152.180000
0
VERTEX
8
0
10
702.760000
20
178.180000
0
VERTEX
8
0
10
719.800000
20
210.100000
0
VERTEX
8
0
10
727.200000
20
223.900000
0
VERTEX
8
0
10
736.300000
20
247.900000
0
VERTEX
8
0
10
744.700000
20
272.100000
0
VERTEX
8
0
10
755.560976
20
323.048780
0
VERTEX
8
0
10
760.000000
20
368.000000
0
VERTEX
8
0
10
759.455172
20
380.037931
0
VERTEX
8
0
10
755.560976
20
423.951220
0
VERTEX
8
0
10
747.615385
20
464.923077
0
VERTEX
8
0
10
746.615385
20
469.923077
0
VERTEX
8
0
10
727.800000
20
520.900000
0
VERTEX
8
0
10
727.200000
20
522.100000
0
VERTEX
8
0
10
701.760000
20
569.820000
0
VERTEX
8
0
10
672.240000
20
609.180000
0
VERTEX
8
0
10
669.000000
20
614.000000
0
VERTEX
8
0
10
626.773756
20
653.751131
0
VERTEX
8
0
10
608.820000
20
666.760000
0
VERTEX
8
0
10
602.846154
20
670.769231
0
VERTEX
8
0
10
579.100000
20
687.200000
0
VERTEX
8
0
10
577.100000
20
688.200000
0
VERTEX
8
0
10
530.900000
20
710.700000
0
VERTEX
8
0
10
526.100000
20
712.300000
0
VERTEX
8
0
10
483.932432
20
725.594595
0
VERTEX
8
0
10
474.076923
20
727.384615
0
VERTEX
8
0
10
438.250000
20
734.250000
0
VERTEX
8
0
10
437.300000
20
745.100000
0
VERTEX
8
0
10
432.769231
20
756.846154
0
VERTEX
8
0
10
431.230769
20
759.153846
0
VERTEX
8
0
10
423.000000
20
769.000000
0
VERTEX
8
0
10
408.911765
20
776.647059
0
VERTEX
8
0
10
399.000000
20
779.000000
0
VERTEX
8
0
10
391.932432
20
778.405405
0
VERTEX
8
0
10
381.900000
20
776.200000
0
VERTEX
8
0
10
369.000000
20
769.000000
0
VERTEX
8
0
10
364.000000
20
764.000000
0
VERTEX
8
0
10
359.230769
20
756.846154
0
VERTEX
8
0
10
354.445545
20
743.955446
0
VERTEX
8
0
10
353.750000
20
734.250000
0
VERTEX
8
0
10
314.076923
20
726.615385
0
VERTEX
8
0
10
308.067568
20
725.594595
0
VERTEX
8
0
10
267.100000
20
712.700000
0
VERTEX
8
0
10
261.100000
20
710.700000
0
VERTEX
8
0
10
218.100000
20
689.800000
0
VERTEX
8
0
10
214.100000
20
687.800000
0
VERTEX
8
0
10
186.153846
20
668.769231
0
VERTEX
8
0
10
176.846154
20
662.230769
0
VERTEX
8
0
10
165.226244
20
653.751131
0
VERTEX
8
0
10
122.000000
20
613.000000
0
VERTEX
8
0
10
113.240000
20
600.820000
0
VERTEX
8
0
10
90.230769
20
569.846154
0
VERTEX
8
0
10
63.300000
20
518.900000
0
VERTEX
8
0
10
61.200000
20
512.900000
0
VERTEX
8
0
10
45.384615
20
469.923077
0
VERTEX
8
0
10
43.615385
20
461.076923
0
VERTEX
8
0
10
35.560976
20
416.048780
0
VERTEX
8
0
10
32.000000
20
379.000000
0
VERTEX
8
0
10
33.544828
20
353.962069
0
VERTEX
8
0
10
34.455172
20
343.037931
0
VERTEX
8
0
10
37.384615
20
318.076923
0
VERTEX
8
0
10
47.700000
20
270.900000
0
VERTEX
8
0
10
56.700000
20
244.900000
0
VERTEX
8
0
10
65.200000
20
223.100000
0
VERTEX
8
0
10
73.800000
20
206.900000
0
VERTEX
8
0
10
89.240000
20
178.180000
0
VERTEX
8
0
10
110.760000
20
148.820000
0
VERTEX
8
0
10
119.000000
20
137.000000
0
VERTEX
8
0
10
160.000000
20
96.000000
0
VERTEX
8
0
10
201.180000
20
66.240000
0
VERTEX
8
0
10
214.100000
20
59.200000
0
VERTEX
8
0
10
238.900000
20
45.800000
0
VERTEX
8
0
10
255.100000
20
38.300000
0
VERTEX
8
0
10
290.900000
20
25.700000
0
VERTEX
8
0
10
307.076923
20
21.384615
0
VERTEX
8
0
10
329.923077
20
16.615385
0
VERTEX
8
0
10
353.951220
20
12.560976
0
VERTEX
8
0
10
401.000000
20
9.000000
0
SEQEND
0
ENDSEC
0
EOF
